Cifra Club

From The Ritz To The Rubble

Arctic Monkeys

Tablatura: Principal (guitarra)
Tom: D
B
And one of em's alright

The other one's the scary one
   D               Em
His way or no way, totalatarian
B
He's got no time for you

Looking or breathing
D
How he don't want you to
Em
So step out the queue

   B
He makes examples of you

And there's nowt you can say
D                       Em
 Behind they go through to the bit where you pay
  B
And you realise then that it's finally the time
D                         Em
To walk back past ten thousand eyes in the line

(Riff 1)
        B
And you can swap jumpers and make another move
D                      Em
Instilled in your brain you've got something to prove
B
To all the smirking faces and the boys in black
D
Why can't they be pleasant?
Em
Why can't they have a laugh?
B
He's got his hand in your chest

He wants to give you a duff
D                          Em
Well secrectly I think they want it all to kick off
B
They want, arms flying everywhere and

Bottles aswell it's just
D
Something to talk about
Em
A story to tell you

(Riff 2)
B
Well I'm so glad they turned us all away we'll put it down to fate
(Riff 2)
B
I thought a thousand million things that I could never say this morning
(Riff 2)
B
Got too deep, but how deep is too deep?
(Riff 2)

B
This town's a different town today
D                   Em                   B
 This town's a different town to what it was last night
                       D                Em
You couldn't have done that on a Sunday..

(Riff 3)
B
That girl's a different girl today
D                       Em                      B
  Said that girl's a different girl to her you kissed last night
                       D                Em
You couldn't have done that on a Sunday    Of course no.

(Riff 2)
B
Well I'm so glad they turned us all away we'll put it down to fate
(Riff 2)
B
I thought a thousand million things that I could never think this morning
(Riff 2)
B
Got too deep, but how deep is too deep?
(Riff 2)

( B  D  Em ) (2x)

B
 Last night what we talked about
D             Em
It made so much sense
           B
But now the haze has ascended
                       D       Em
It don't make no sense anymore

B
 Last night what we talked about
D              Em
It made so much sense
           B
But now the haze has ascended
                  D             Em
It don't make no sense anymore   Oh!

( B  D  Em ) (8x)
Riff 1:
E|-----------------------------------------------|
B|--12---10--------------------------------------|
G|-----------11---9--11------------7~--------9~--|
D|-----------------------9---7--9------7--9------|
A|-----------------------------------------------|
E|-----------------------------------------------|

Riff 2:
E|----------------------------------------------------|
B|----------------------------------------------------|
G|----------------------------------------------------|
D|-----------------------7-9-7-9---9--7~~-------------|
A|-----5---5---7-9-7-9--------------------9--7~~--5---|
E|---7---7--------------------------------------------|

Riff 3:
E|-------------------------------------------|
B|-------------------------------------------|
G|-------------------------------------------|
D|--9---7------------------------------------|
A|---------9---7--9------------5---------7~--|
E|-------------------7---5--7------5--7------|
reproducciones 1.500
Acordes para:
    Composição: Arctic Monkeys Colaboración y revision:
    • Vitor Escalfoni
    • Victor Buttignon
    • Leonardo Oliviera

    0 comentarios

    mostrar más comentarios

    ¿Conseguiste tocar?

    13 tocaron 0 aún no

    ¡Graba un vídeo tocando From The Ritz To The Rubble y envianoslo!

    00:00 / 00:00
    outros vídeos desta música
    repetir qualidade Automático
    Outros vídeos desta música
    00:00 / 00:00
    Automático
    OK