Cifra Club

I Wanna Be Yours

Arctic Monkeys

Cifrado: Principal (guitarra y guitarra eléctrica)
tono: A
[Intro] Cm  Fm  Gm
        Cm  Fm  Gm

[Tab - Intro]

   Cm                Fm       Gm
E|-----------------------------------------------------|
B|-----------------------------------------------------|
G|-----------------------------------------------------|
D|-----------------------------------------------------|
A|-3--------3--------8--------10-----------------------|
E|--------3-----------------8--------------------------|

   Cm                Fm       Gm
E|-----------------------------------------------------|
B|-----------------------------------------------------|
G|-----------------------------------------------------|
D|-----------------------------------------------------|
A|-3--------3------------------------------------------|
E|--------3----------1------1-3------------------------|

[Primeira Parte] 

[Tab - Primeira Parte]

   Cm                Fm       Gm
E|-----------------------------------------------------|
B|-----------------------------------------------------|
G|-----------------------------------------------------|
D|-----------------------------------------------------|
A|-3--------3--------8--------10-----------------------|
E|--------3-----------------8--------------------------|

   Cm                Fm       Gm
E|-----------------------------------------------------|
B|-----------------------------------------------------|
G|-----------------------------------------------------|
D|-----------------------------------------------------|
A|-3--------3------------------------------------------|
E|--------3----------1------1-3------------------------|

   Cm                Fm       Gm
E|-----------------------------------------------------|
B|-----------------------------------------------------|
G|-----------------------------------------------------|
D|-----------------------------------------------------|
A|-3--------3--------8--------10-----------------------|
E|--------3-----------------8--------------------------|

   Cm                Fm       Gm
E|-----------------------------------------------------|
B|-----------------------------------------------------|
G|-----------------------------------------------------|
D|-----------------------------------------------------|
A|-3--------3------------------------------------------|
E|--------3----------1------1-3-----/6\----------------|

Cm                                Fm
   I wanna be your vacuum cleaner
                   Gm  Cm
Breathing in your dust
                             Fm
I wanna be your Ford Cortina
              Gm  Cm
I will never rust
                            Fm  
If you like your coffee hot
                   Gm     Cm 
Let me be your coffee pot
                          
You call the shots, babe
        Fm            Gm
I just wanna be yours

[Pré-Refrão] 

Tab - Pré-Refrão

   Fm       Gm      Cm      Fm
E|-----------------------------------------------------|
B|-----------------------------------------------------|
G|-----------------------------------------------------|
D|-----------------------------------------------------|
A|--------8---------3---3------------------------------|
E|-1---/8---3---3-----------1---1----------------------|

            Gm
E|-----------------------------------------------------|
B|-----------------------------------------------------|
G|-----------------------------------------------------|
D|-----------------------------------------------------|
A|--------8--------------------------------------------|
E|-1---/8---3---3--------------------------------------|

 Fm             Gm  
Secrets I have held in my heart
Cm             Fm
Are harder to hide than I thought
              Gm            
Maybe I just wanna be yours

[Refrão] 

Tab - Refrão

   Cm      Bb      Ab
E|-----------------------------------------------------|
B|-----------------------------------------------------|
G|-----------------------------------------------------|
D|-----------------------------------------------------|
A|-3---3---------------------11------------------------|
E|---------6---6---4------4/---------------------------|

   Cm      Bb      Ab            Gm
E|-----------------------------------------------------|
B|-----------------------------------------------------|
G|-----------------------------------------------------|
D|-----------------------------------------------------|
A|---------------------------11------------------------|
E|-8-----8-6---6---4------4/---------------------------|

   Cm               
I wanna be yours
   Bb       Ab
I wanna be yours
          Cm
Wanna be yours
 Bb       Ab
Wanna be yours
          Gm
Wanna be yours


[Segunda Parte] 

Cm                             Fm
   Let me be your 'leccy meter
                   Gm  
And I'll never run out
     Cm                       Fm
Let me be the portable heater
                         Gm  Cm
That you'll get cold without
                               Fm
I wanna be your setting lotion
                          Gm
Hold your hair in deep devotion 

At least as deep as the pacific ocean
   Fm            Gm
I wanna be yours


[Pré-Refrão] 

 Fm             Gm  
Secrets I have held in my heart
Cm             Fm
Are harder to hide than I thought
              Gm            
Maybe I just wanna be yours
   Cm                Bb       Ab
I wanna be yours, I wanna be yours
          Cm
Wanna be yours
 Bb       Ab
Wanna be yours
          Cm   
Wanna be yours
 Bb       Ab
Wanna be yours
          Cm   
Wanna be yours
 Bb       Ab
Wanna be yours
          Cm   Bb  Ab 
Wanna be yours

[Final] 

[Tab - Solo Final]

E|-----------------------------------------------------|
B|-----------------------------------------------------|
G|-5-----5--8--10\---5-----5--8--10\---5-----5--8--10\-|
D|-----------------------------------------------------|
A|-----------------------------------------------------|
E|-----------------------------------------------------|

E|-----------------------------------------------------|
B|-----------------------------------------------------|
G|-5-----5-8-10-12-13-12-10-8-5--8--10\----------------|
D|-----------------------------------------------------|
A|-----------------------------------------------------|
E|-----------------------------------------------------|

E|-----------------------------------------------------|
B|-----------------------------------------------------|
G|-5-----5-8-10-12-13-12-10-8-5--8--10\---3~-----------|
D|-----------------------------------------------------|
A|-----------------------------------------------------|
E|-----------------------------------------------------|

                               Cm
I wanna be your vacuum cleaner 
                   Bb  Ab
Breathing in your dust
                             Cm
I wanna be your Ford Cortina 
              Bb
I will never rust 
        Ab      
I just wanna be yours 
        Cm       Bb   
I just wanna be yours 
        Ab            Gm
I just wanna be yours
00:00 / 00:00
Otros videos de esta canción
Repetir
Otros videos de esta canción
Composición de Alex Turner / Jamie Cook / John Cooper Clarke / Matt Helders / Nick O'Malley
39.108 vistas
  • Simplificar cifrado
    • ½ Tono
    • A
    • Bb
    • B
    • C
    • Db
    • D
    • Eb
    • E
    • F
    • F#
    • G
    • Ab
  • Agregar a la lista

    0 comentarios

    Ver todos los comentarios

    ¿Lograste tocar?

    161 Tocaron 11 Aún no

    ¡Graba un video tocando I Wanna Be Yours y envíanoslo!

    00:00 / 00:00
    Capítulos
    • Tocando a Música
    • Acordes da Música
    • Dicas Introdução - Refrão
    • Tocando Introdução - Refrão
    • Ensinando Riffs
    • Ensinando Solo final
    • Encerramento
    OK