Cifra Club

Knee Socks

Arctic Monkeys

Tablatura: Principal (guitarra)
Tom: G
[Intro]  Em  D  C  B

[Parte 1]

E|--------------7--------------7------------7---------------|
B|------8--8/10--------8--8/10--------8-----------8-8/10-8--|
G|--7/9------------7/9------------7/9----7----7/9-----------|
D|----------------------------------------------------------| 
A|----------------------------------------------------------|
E|----------------------------------------------------------|

E|--------------7--------------7----------------------------|
B|------8--------------8-------------8----------------------|
G|--7/9----4/5-----7/9----4/5----7/9----4/7--9/11--12/11----|
D|----------------------------------------------------------| 
A|----------------------------------------------------------|
E|----------------------------------------------------------|

[Parte 2]

E|--------------7--------------7------------7---------------|
B|------8--8/10--------8--8/10--------8-----------8-8/10-8--|
G|--7/9------------7/9------------7/9----7----7/9-----------|
D|----------------------------------------------------------| 
A|----------------------------------------------------------|
E|----------------------------------------------------------|

E|----------------------------------------------------------|
B|------8-------8/10--12/10--8/5----------------------------|
G|--7/9----5/9--------------------4h7--9/11--12/11--9/11----|
D|----------------------------------------------------------| 
A|----------------------------------------------------------|
E|----------------------------------------------------------|

Em              D                      C
   You got the lights on in the afternoon
         B                    Em
And the nights are drawn out long
            D                           C
And you're kissing to cut through the gloom
        B                       Em
With a cough drop coloured tongue
              D                              C
And you were sitting in the corner with the coats all piled high
        B                     Em
And I thought you might be mine
       D                              C
In a small world on an exceptionally rainy tuesday night
     B
In the right place and time

          Em                          D
When the zeros line up on the twenty-four hour clock
           C                                 B
When you know who's calling even though the number is blocked
          Em                                   D
When you walked around your house wearing my sky blue lacoste
     C         B
And your knee socks


Em            D                  C
   Well, you cured my January blues
           B             Em
Yeah, you made it all alright
      D                                  C
I got a feeling I might've lit the very fuse
      B                      Em
that you were trying not to light
              D                           C
You were a stranger in my phonebook I was acting like I knew
         B                Em
Cause I had nothing to lose
          D                          C
When the Winter's in full swing and your dreams just aren't coming true
          B
Ain't it funny what you'll do?

          Em                          D
When the zeros line up on the twenty-four hour clock
           C                                 B
When you know who's calling even though the number is blocked
          Em                                   D
When you walked around your house wearing my sky blue lacoste
     C         B
And your knee socks

C
In late afternoon
      D
The ghost in your room
                  Em
That you always thought didn't approve
         Em
Of you knocking boots
                   C                           B
Never stopped you letting me get hold of the sweet spot by the scruff of your
  Em
Knee socks

Em
  You and me could have been a team
Each had a half of a king and queen seat
Like the beginning of mean streets
You could be my baby


          Em                          D
When the zeros line up on the twenty-four hour clock
           C                                 B
When you know who's calling even though the number is blocked
          Em                                   D
When you walked around your house wearing my sky blue lacoste
     C         B
And your knee socks
reproducciones 7.295
Acordes para:
    Composição: Alex Turner Colaboración y revision:

    0 comentarios

    mostrar más comentarios

    ¿Conseguiste tocar?

    23 tocaron 1 aún no

    ¡Graba un vídeo tocando Knee Socks y envianoslo!

    00:00 / 00:00
    outros vídeos desta música
    repetir qualidade Automático
    Outros vídeos desta música
    00:00 / 00:00
    Automático
    OK