Cifra Club

Leave Before The Lights Come On

Arctic Monkeys

Tablatura: Principal (guitarra)
Tom: C
Intro: C   Em   Dm   Dm
E|-0-0-0-0-0-0-0-0--5-3-0-3-0----------3-0---0-------------3-0---0----|
B|-----------------------------------------3---3---------------3---3--|
G|-------------------------------2-2-2--------------2-2-2-------------|
D|--------------------------------------------------------------------|
A|--------------------------------------------------------------------|
E|--------------------------------------------------------------------|

Verso:
C                   Em
Well this is a good idea
                        Dm
You wouldn't do it if it wasn't

You wouldn't do it if it wasn't one
C                 Em
Well my friend fancies you,
                 Dm
Oh what a way to begin it all,

You said it's always exciting words to hear

Refrão:
Em                                           Dm
And we woke up together not quite realising how,
                            Em
Oh when your stretching and yawning,
                       Dm               Em
Its always hard in the morning,

                                   Dm
And I suppose that's the price you pay,
                    Em
Oh it isn't what it was,
                                     Dm
She's thinking he looks different today,

And oh there's nothing left to guess now,

Verso 2:
E|-----------|
B|-----------|
G|-----------| (4x)
D|---5-------|
A|-3---3-3-3-|
E|-----------|

E|-------------------------------------------------|-----------|
B|-------------------------------------------------|-----------|
G|----------------------------4------------4-------|-----------| (4x)
D|---2-5---2-----2-5---2----2---5---2----2---5---2-|-----5-----|
A|-3-----------3-----------------------------------|-5-7----7--|
E|-------------------------------------------------|-----------|

C                                 Em
  You left before the lights came on,
                        Dm
Because you didn't want to ruin,
                      Dm
All the lust that was brewing,

Before he absolutely had to,
C                      Em
  And how can you wake up,
                       Dm
With someone you don't love?
                      Dm
And not feel slightly fazed by it,

Oh, he had a struggle,

Refrão:
       Em                                   Dm
And we woke up together not quite realising how,
                            Em
Oh when your stretching and yawning,
                       Dm               Em
Its always hard in the morning,

                                   Dm
And I suppose that's the price you pay,
                    Em
Oh it isn't what it was,
                                     Dm
She's thinking he looks different today,

And oh there's nothing left to guess now,

Ponte:
 C                              Am
Quick, let's leave, before the lights come on,
               Dm            Am
'Cos then you don't have to see,
               Dm            F
'Cos then you don't have to see,

What you've done,
C                              Am
Quick, let's leave, before the lights come on,
              Dm            Am
'Cos then you don't have to see,
              Dm            F
'Cos then you don't have to see,

What you've done,

Outro:
    Am                  G                  F                      E
E|-------------------------------------------------------------------------------------|
B|-------------------------------------------------------------------------------------|
G|-------------------------------------------------------------------------------------|
D|--------------------77777777777777777775555555555555---------------------------------|
A|0000000000000000000---------------------------------777777777755555555555533333333333|
E|-------------------------------------------------------------------------------------|

    Am              G               F              E
E|----------------------------------------------------------------|
B|----------------------------------------------------------------|
G|----------------------------------------------------------------|
D|----------------5555777755557777--------------------------------|
A|5555777755557777----------------77777777555555553333333377777777|
E|----------------------------------------------------------------|

Solo:
E|-0-0-0-0-0-0-0-0--5-3-0-3-0----------3-0---0------------3-0---0--------------------|
B|-----------------------------------------3---3--------------3---3------------------|
G|-------------------------------2-2-2--------------2-2-2----------------------------|
D|----------------------------------------------------------------------5---5---5-7-5|
A|--------------------------------------------------------------------7---7---7------|
E|-----------------------------------------------------------------------------------|

E|-0-0-0-0-0-0-0-0--5-3-0-3-0-----------0-0-3-0-0-----------0-0-3-0--------------------------|
B|---------------------------------/5-5----------------/5-5---------5--3-5--3-5--3-5--3-5-5-3|
G|-----------------------------2-2-----------------2-2---------------------------------------|
D|-------------------------------------------------------------------------------------------|
A|-------------------------------------------------------------------------------------------|
E|-------------------------------------------------------------------------------------------|

Final:
I'll walk you up, what time's the bus come?
I'll walk you up, what time's the bus come?
I'll walk you up, what time's the bus come?
I'll walk you up, what time's the bus come?
reproducciones 6.456
Acordes para:
    Composição: Alex Turner / Arctic Monkeys Colaboración y revision:
    • Vitor Escalfoni
    • PEDRO

    0 comentarios

    mostrar más comentarios

    ¿Conseguiste tocar?

    23 tocaron 0 aún no

    ¡Graba un vídeo tocando Leave Before The Lights Come On y envianoslo!

    00:00 / 00:00
    outros vídeos desta música
    repetir qualidade Automático
    Outros vídeos desta música
    00:00 / 00:00
    Automático
    OK