Cifra Club

Mardy Bum

Arctic Monkeys

Tablatura: Principal (guitarra)
Tom: D
[Intro] D  F#  G  F#m  Em  A
        D  F#  G  F#m  Em  A
 
Guitarra 1

E|-7-7-7-7-7-7-7--5-5-5-5-5-5-5-------------|
B|-8-8-8-8-8-8-8--7-7-7-7-7-7-7-------------|
G|------------------------------------------|
D|------------------------------------------|
A|------------------------------------------|
E|------------------------------------------|

E|-3-3-3-3-3-3-3----------------------------|
B|-5-5-5-5-5-5-5--5-5-5-5-5-5-5-------------|
G|----------------6-6-6-6-6-6-6-------------|
D|------------------------------------------|
A|------------------------------------------|
E|------------------------------------------|

Guitarra 2

E|-7-7-7-7---5------------------------------|
B|-------------7-5--------------------------|
G|-----------------7--4--2--4--2------------|
D|--------------------------------4---2-----|
A|------------------------------------------|
E|------------------------------------------|

E|------------------------------------------|
B|------------------------------------------|
G|-11--11-9-11-9-7--7-9-11--11-9-11-9-7--7-9|
D|------------------------------------------|
A|------------------------------------------|
E|------------------------------------------|

E|------------------------------------------|
B|------------------------------------------|
G|-6-7-7-6-4-\-2-/-77777-9------------------|
D|------------------------------------------|
A|------------------------------------------|
E|------------------------------------------|

E|------------------------------------------|
B|------------------------------------------|
G|11--11-9-11-9-7--7-9-11-11-11-9-11-9-7-7-9|
D|------------------------------------------|
A|------------------------------------------|
E|------------------------------------------|

E|------------------------------------------|
B|------------------------------------------|
G|-6-7-7-6-4--6-7--7777-7/9-7---------------|
D|------------------------------------------|
A|------------------------------------------|
E|------------------------------------------|

[Primeira Parte]
 
D                      F#
  Well now then Mardy Bum 
             G
I see your frown and it's like  
 F#m              Em
Looking down the barrel of a gun 
A           D
And it goes off 
                   F#
And out come all these words 
              G             F#m
Oh there's a very pleasant side to you 
   Em                      A
A side I much prefer, it's one that 

[Refrão]

G                    A
  Laughs and jokes around 
          D              A
Remember cuddles in the kitchen yeah 
    Bm                               G
To get things off the ground and it was 
            A
Up up and away  
             D         A
Oh but it's way hard to remember that 
Bm                            G
On a day like today when your all 
          A
Argumentative and you've  

Got the face on 

( D  F#  G  F#m  Em  A ) 

[Segunda Parte]
 
D                      F#
  Well now then Mardy Bum 
       G            F#m
Oh I'm in trouble again  
Em        A             D
aren't I? I thought as much
                         F#
Coz you've turned over there  
              G           F#m
Pulling that silent disappointment face  
    Em
The one that I can't bear
 A
Can't we

[Refrão]

G                    A
  Laughs and jokes around 
          D              A
Remember cuddles in the kitchen yeah 
    Bm                               G
To get things off the ground and it was 
            A
Up up and away  
             D         A
Oh but it's way hard to remember that 
Bm                            G
On a day like today when your all 
          A
Argumentative and you've  
 
Got the face on 

[Ponte]
 
F#5                     G5
  Yeah i'm sorry I was late 
               F#5 
I missed the train 
                        G5
And the traffic was a state 
           F#5               
I can't be arsed to carry on 
           G5
In this debate that reoccurs  
             F#5                          G5
Oh when you say I don't care of course i do  
                A5
Yeah i clearly do 

[Solo] D  F#  G  F#m  Em  A 
       D  F#  G  F#m  Em  A 
 
E|------------------------------------------|
B|------------------------------------------|
G|-7/9-7-6-7--6-7-7/9-7-6-7-6-4-6-4-2-4-2---|
D|------------------------------------------|
A|------------------------------------------|
E|------------------------------------------|

E|------------------------------------------|
B|------------------------------------------|
G|---------2----------7777-9-6--66-7-9------|
D|-4-4-2h4---4-2----------------------------|
A|---------------5-5------------------------|
E|------------------------------------------|

E|------------------------------------------|
B|------------------------7-----------------|
G|-/11-9-7------7--7----9---9-7-9-7---------|
D|---------9--9-----------------------------|
A|------------------------------------------|
E|------------------------------------------|

[Refrão]

G                    A
  Laughs and jokes around 
          D              A
Remember cuddles in the kitchen yeah 
    Bm                               G
To get things off the ground and it was 
            A
Up up and away  
             D         A
Oh but it's way hard to remember that 
Bm                            G
On a day like today when your all 
          A
Argumentative and you've  
             D
Got the face on
reproducciones 32.095
Acordes para:

    0 comentarios

    mostrar más comentarios

    ¿Conseguiste tocar?

    72 tocaron 2 aún no

    ¡Graba un vídeo tocando Mardy Bum y envianoslo!

    00:00 / 00:00
    outros vídeos desta música
    repetir qualidade Automático
    Outros vídeos desta música
    00:00 / 00:00
    Automático
    OK