Cifra Club

My Propeller

Arctic Monkeys

Tablatura: Principal (guitarra)
Tom: C
Intro: E   G    C  Am  C G  Em

Verso
E|--------------------------------------------------|
B|--------------------------------------------------|
G|--------------------------------------------------|
D|--------------------------------------------------|
A|------2---0-------0---2---------------------------|
E|----0---0---0-3-3---3---3--0----------------------|

If you can summon the strength, tow me.
I can't hold down the urgency
You've got to make your decent slowly
And oil up those sticky keys

Ponte
E|---------------------------------------------|
B|---------------------------------------------|
G|---------------------------2-----------------|
D|---------------------------3-----------------|
A|--3--3-2-0---------0-2-----3-----------------|
E|-----------3-2-2-3---------1-----------------|

Coax me out, my love
And have a spin of my propeller

Verso
E|--------------------------------------------------|
B|--------------------------------------------------|
G|--------------------------------------------------|
D|--------------------------------------------------|
A|------2---0-------0---2---------------------------|
E|----0---0---0-3-3---3---3--0----------------------|

It's a necessary evil
No cause for emergency
Borrow the beak of a bald eagle
Oh, momentary synergy

Ponte
E|----------------------------------------------------------------------|
B|----------------------------------------------------------------------|
G|------------------------------------------------------------------2---|
D|------------------------------------------------------------------3---|
A|--3--3-2-0---------0-2-2-0---------------2--3-3-2-0---------0-2---3---|
E|-----------3-2-2-3---------3-2-0-0-2-3-------------3-2-2-3--------1---|

Coax me out my, my love
Sink into tomorrow
Coax me out, my love
And have a spin of my propeller

E   G    C  Am  C G  Em

Solo

E|-------------------------------------------------------------------|
B|----------12--13-12-10--12--10--13-12-10-12------------------------|
G|------9-12----------------------------------12-11-9-11-9-----------|
D|-------------------------------------------------------------------|
A|-------------------------------------------------------------------|
E|-------------------------------------------------------------------|

E|---------------------------10-----------------------------10------------------------|
B|------10-12--------10---12-----12-10-12-------------10-12----12-10-8-12-10-8--------|
G|-9-12------9---9-12---------------------12--9--9-12---------------------------9-----|
D|------------------------------------------------------------------------------------|
A|------------------------------------------------------------------------------------|
E|------------------------------------------------------------------------------------|

( E   G    C  Am  C G  Em )

My propeller won't spin and I can't get it started on my own
When are you arriving?
My propeller won't spin and I can't get it started on my own
When are you arriving?
My propeller won't spin and I can't get it started on my own
When are you arriving?
My propeller
reproducciones 2.638
Acordes para:
    Composição: Alex Turner / Arctic Monkeys Colaboración y revision:
    • Pedro Gomes
    • Hellison Vidal

    0 comentarios

    mostrar más comentarios

    ¿Conseguiste tocar?

    16 tocaron 2 aún no

    ¡Graba un vídeo tocando My Propeller y envianoslo!

    00:00 / 00:00
    outros vídeos desta música
    repetir qualidade Automático
    Outros vídeos desta música
    00:00 / 00:00
    Automático
    OK