Cifra Club

Piledriver Waltz

Arctic Monkeys

Tablatura: Principal (guitarra)
Tom: E
[Intro]  E  C#m  G#  A

E|-----7-7-7-7-7-7-7-7--|7-7-7-7-7-7-7-7--|7-7-7-9-9-9-8-8-8-9--9--9------|
B|------9-9-9-9-9-9-9-9-|-9-9-9-9-9-9-9-9-|-9-9-9-9-9-9-9-9-9-10-10-10----|
G|------------------------------------------------------------------------|
D|------------------------------------------------------------------------|
A|------------------------------------------------------------------------|
E|------------------------------------------------------------------------|

E                           C#m
I etched the face of a stopwatch On the back of a raindrop
Ab                             A
And did a swap for the sand in an hourglass
E                             C#m
I heard an unhappy ending it sort of sounds like you're leaving
   Ab                         A                           E
I heard the piledriver waltz, it woke me up this morning

                      A                        F#m          C#m
You look like you've been for breakfast at the heartbreak hotel
                            A                   F#m      C#m
Inside of a back booth by the pamphlets and the literature on how to lose
      A            B             E           Ab
Your waitress was miserable and so was your food
           A                                             B                  B7
If you're gonna try to walk on water make sure you wear your comfortable shoes

 E                        C#m                                 Ab
Mysteries flashing amber go green when you answer but the red on
                               A
the rest of the questionnaire never changes
E                              C#m
I heard the news that you're planning to shoot me out of a cannon
    Ab                        A                      E
I heard the piledriver waltz, it woke me up this morning

                      A                        F#m          C#m
You look like you've been for breakfast at the heartbreak hotel
                            A                   F#m      C#m
Inside of a back booth by the pamphlets and the literature on how to lose
      A            B             E           Ab
Your waitress was miserable and so was your food
           A                                             B                  B7
If you're gonna try to walk on water make sure you wear your comfortable shoes

E  C#m  Ab  A
Oh, piledriver

E|---12t--14-11t--12-9-11t 9h8-9-11-9t--9-7----------|
B|-----------------------------------------1O-9-7----|
G|-----------------------------------------------9t--|
D|---------------------------------------------------|
A|---------------------------------------------------|
E|---------------------------------------------------|
reproducciones 10.370
Acordes para:

    0 comentarios

    mostrar más comentarios

    ¿Conseguiste tocar?

    33 tocaron 0 aún no

    ¡Graba un vídeo tocando Piledriver Waltz y envianoslo!

    00:00 / 00:00
    outros vídeos desta música
    repetir qualidade Automático
    Outros vídeos desta música
    00:00 / 00:00
    Automático
    OK