Cifra Club

Plastic Tramp

Arctic Monkeys

Tablatura: Principal (guitarra)
Tom: D
E |------9-9-9-8-9-12-12-12-12 / ------9-9-9-8-9-12-12-12-12-:
B |7-7-10--------------------- / 6-6-10----------------------:
G |--------------------------- / ----------------------------:
D |--------------------------- / ----------------------------:
A |--------------------------- / ----------------------------:
E |--------------------------- / ----------------------------:

E |14-14-12-9-------12-12-12-- / 14-14-12-8--12-------------:
B |--------------------------- / ---------------------------:
G |--------------------------- / ---------------------------:
D |--------------------------- / ---------------------------:
A |--------------------------- / ---------------------------:
E |--------------------------- / ---------------------------:

E |----------------------- / -------------------------------:
B |----------------------- / -------------------------------:
G |-----------9------11--- / -------------------------------:
D |11--------------------- / 10-----------------------------:
A |----------------------- / -------------------------------:
E |----------------------- / -------------------------------:

E |----------------------- / -------------------------------:
B |----------------------- / -------------------------------:
G |-----------9------11--- / -------------------------------:
D |11--------------------- / 10-----------------------------:
A |----------------------- / -------------------------------:
E |----------------------- / -------------------------------:

G |--------------------------- / ---------------------------:
D |--------------------------- / ---------------------------:
A |---4-----4-------4-----4--- / ---3-----3-------3-----3---:
E |2------2------2------2----- / 2------2------2------2-----:

G |--------------------------- / ---------------------------:
D |--------------------------- / ---------------------------:
A |---4-----4-------4-----4--- / ---3-----3-------3-----3---:
E |2------2------2------2----- / 2------2------2------2-----:

G |--------------------------- / ---------------------------:
D |--------------------------- / ---------------------------:
A |---4-----4-------4-----4--- / ---3-----3-------3-----3---:
E |2------2------2------2----- / 2------2------2------2-----:

G |--------------------------- / ---------------------------:
D |--------------------------- / ---------------------------:
A |---4-----4-------4-----4--- / ---3-----3-------3-----3---:
E |2------2------2------2----- / 2------2------2------2-----:

E |-------------------------- / ----------------------------:
B |7------------------------- / 10--------------------------:
G |-------------------------- / ----------------------------:
D |-------------------------- / ----------------------------:
A |-------------------------- / ----------------------------:
E |-------------------------- / ----------------------------:

E |9------------------------- / 12--------------------------:
B |-------------------------- / ----------------------------:
G |-------------------------- / ----------------------------:
D |-------------------------- / ----------------------------:
A |-------------------------- / ----------------------------:
E |-------------------------- / ----------------------------:

E |----------------------- / -------------------------------:
B |----------------------- / -------------------------------:
G |-----------9------11--- / -------------------------------:
D |11--------------------- / 10-----------------------------:
A |----------------------- / -------------------------------:
E |----------------------- / -------------------------------:

E |----------------------- / -------------------------------:
B |----------------------- / -------------------------------:
G |-----------9------11--- / -------------------------------:
D |11--------------------- / 10-----------------------------:
A |----------------------- / -------------------------------:
E |----------------------- / -------------------------------:

G |--------------------------------:
D |--------------------------------:
A |----------------------------3-4-:
E |2-2-2-2-2-2-2-2-2-2-2-2-2-5-----:

E |----------------------------------:
B |7-7-7-7-7-7-7-7-7-7-7-7-7-7-7-7-7-:
G |----------------------------------:
D |----------------------------------:
A |----------------------------------:
E |----------------------------------:

E |---------------------------------------------------:
B |10-10-10-10-10-10-10-10-10-10-10-10-10-10-10-10-10-:
G |---------------------------------------------------:
D |---------------------------------------------------:
A |---------------------------------------------------:
E |---------------------------------------------------:


E |9-9-9-9-9-9-9-9-9-9-9-9-9-9-9-9-:
B |--------------------------------:
G |--------------------------------:
D |--------------------------------:
A |--------------------------------:
E |--------------------------------:

E |12-12-12-12-12-12-12-12-12-12-12-12-12-12-12-17-:
B |------------------------------------------------:
G |------------------------------------------------:
D |------------------------------------------------:
A |------------------------------------------------:
E |------------------------------------------------:

E |14------12------9------12------:
B |-------------------------------:
G |-------------------------------:
D |-------------------------------:
A |-------------------------------:
E |-------------------------------:

E |14------12------8------12------:
B |-------------------------------:
G |-------------------------------:
D |-------------------------------:
A |-------------------------------:
E |-------------------------------:

E |14------12------9------12------:
B |-------------------------------:
G |-------------------------------:
D |-------------------------------:
A |-------------------------------:
E |-------------------------------:

E |14------12------8------12------:
B |-------------------------------:
G |-------------------------------:
D |-------------------------------:
A |-------------------------------:
E |-------------------------------:

E |--------------- / E:----------------:
B |--------------- / B ----------------:
G |--------------- / G ----------------:
 D |4-4-4-4-4-4-4-4 / D 4-4-4-4-4-4-4-4-:
A |4-4-4-4-4-4-4-4 / A 3-3-3-3-3-3-3-3-:
E |2-2-2-2-2-2-2-2 / E 2-2-2-2-2-2-2-2-:

E |--------------------------------:
B |--------------------------------:
G |--------------------------------:
D |4-4-4-4-4-4-4-4-4-4-4-4-4-4-4-4-:
A |4-4-4-4-4-4-4-4-4-4-4-4-4-4-4-4-:
E |2-2-2-2-2-2-2-2-2-2-2-2-2-2-2-2-:

E |--------------------------------:
B |--------------------------------:
G |--------------------------------:
D |4-4-4-4-4-4-4-4-4-4-4-4-4-4-4-4-:
A |3-3-3-3-3-3-3-3-3-3-3-3-3-3-3-3-:
E |2-2-2-2-2-2-2-2-2-2-2-2-2-2-2-2-:

G |-------------------------------:
D |-------------------------------:
A |4-4----------4-4---------------:
E |-------2-5-2--------0-2-0-2-5--:

G |-------------------------------:
D |-------------------------------:
A |3-3----------3-3---------------:
E |-------2-5-2--------0-2-0-2-5--:

G |-------------------------------:
D |-------------------------------:
A |4-4----------4-4---------------:
E |-------2-5-2--------0-2-0-2-5--:

G |-------------------------------:
D |-------------------------------:
A |3-3----------3-3---------------:
E |-------2-5-2-------------------:

G |--------------------------- / ---------------------------:
D |--------------------------- / ---------------------------:
A |---4-----4-------4-----4--- / ---3-----3-------3-----3---:
E |2------2------2------2----- / 2------2------2------2-----:

E |14--12--9----------------------:
B |-------------------------------:
G |-------------------------------:
D |-------------------------------:
A |-------------------------------:
E |-------------------------------:

E |14--12--8----------------------:
B |-------------------------------:
G |-------------------------------:
D |-------------------------------:
A |-------------------------------:
E |-------------------------------:

E |----------------------- / -------------------------------:
B |----------------------- / -------------------------------:
G |-----------9------11--- / -------------------------------:
D |11--------------------- / 10-----------------------------:
A |----------------------- / -------------------------------:
E |----------------------- / -------------------------------:

E |----------------------- / -------------------------------:
B |----------------------- / -------------------------------:
G |-----------9------11--- / -------------------------------:
D |11--------------------- / 10-----------------------------:
A |----------------------- / -------------------------------:
E |----------------------- / -------------------------------:

G |---------------------- / ---------------------:
D |---------------------- / ---------------------:
A |4---------------4-4-4- / ---------------------:
E |---------------------- / 2--------------2-2-2-:

G |---------------------- / --------------------:
D |---------------------- / --------------------:
A |----------2----------- / ----------2---------:
E |5----4---------------- / 5----4--------------:

E |---------------------- / ---------------------:
B |---------------------- / ---------------------:
G |6---------------6-6-6- / ---------------------:
D |6---------------6-6-6- / 4--------------4-4-4-:
A |4---------------4-4-4- / 4--------------4-4-4-:
E |---------------------- / 2--------------2-2-2-:

E |---------------------- / --------------------:
B |---------------------- / --------------------:
G |---------------------- / --------------------:
D |7----6----9----------- / 7----6----9---------:
A |7----6----9----------- / 7----6----9---------:
E |5----4----7----------- / 5----4----7---------:

E |---------------------- / --------------------:
B |---------------------- / --------------------:
G |6--------------------- / --------------------:
D |6--------------------- / 4-------------------:
A |4--------------------- / 4-------------------:
E |---------------------- / 2-------------------:

E |---------------------- / --------------------:
B |---------------------- / --------------------:
G |---------------------- / --------------------:
D |7----6----9----------- / 7----6----9---------:
A |7----6----9----------- / 7----6----9---------:
E |5----4----7----------- / 5----4----7---------:

G |--------------------------------:
D |--------------------------------:
A |----------------------------3-4-:
E |------------------------0-2-----:
                                    bass
G |--------------------------------:
D |--------------------------------:
A |----------------------------3-4-:
E |2-2-2-2-2-2-2-2-2-2-2-2-0-2-----:

E |--------------- / E:----------------:
B |--------------- / B ----------------:
G |--------------- / G ----------------:
 D |4-4-4-4-4-4-4-4 / D 4-4-4-4-4-4-4-4-:
A |4-4-4-4-4-4-4-4 / A 3-3-3-3-3-3-3-3-:
E |2-2-2-2-2-2-2-2 / E 2-2-2-2-2-2-2-2-:

E |14-12-9-12-14-12-8-12-:
B |----------------------:
G |----------------------:
D |----------------------:
A |----------------------:
E |----------------------:

E |--------------- / E:----------------:
B |--------------- / B ----------------:
G |--------------- / G ----------------:
 D |4-4-4-4-4-4-4-4 / D 4-4-4-4-4-4-4-4-:
A |4-4-4-4-4-4-4-4 / A 3-3-3-3-3-3-3-3-:
E |2-2-2-2-2-2-2-2 / E 2-2-2-2-2-2-2-2-:
reproducciones 270
Acordes para:
    Composição: Alex Turner / Arctic Monkeys Colaboración y revision:
    • washington moreira

    0 comentarios

    mostrar más comentarios

    ¿Conseguiste tocar?

    1 tocaron 0 aún no

    ¡Graba un vídeo tocando Plastic Tramp y envianoslo!

    00:00 / 00:00
    outros vídeos desta música
    repetir qualidade Automático
    Outros vídeos desta música
    00:00 / 00:00
    Automático
    OK