Cifra Club

Science Fiction

Arctic Monkeys

Tablatura: Principal (guitarra)
Tom: Bb
[Intro] Cm  Gm
                                      Cm
Religious iconography giving you the creeps?
              Gm
I feel rougher than a disco lizard tongue along your cheek
                  Cm
The rise of the machines
      Gm
I must admit you gave me something momentarily
                   Cm
In which I could believe

But the hand of harsh reality's un-gloved

And it's on its way back in to scoop you up

But not on my watch

I want to stay with you, my love
               D
The way some science fiction does

E|---3---4-----3---------------------------|
B|----------5-----3---2---3-----2----------|
G|---------------------------5-----4---5---|
D|-----------------------------------------|
A|-----------------------------------------|
E|-----------------------------------------|

( Cm  Gm )

                                                Cm
Reflections in the silver screen of strange societies
       Gm
Swamp monster with a hard-on for connectivity
                      Cm
The ascension of the cream
    Gm
Mass panic on a not too distant future colony
             Cm
Quantitative easing

I want to make a simple point about peace and love

But in a sexy way where it's not obvious

Highlight dangers and send out hidden messages
               D
The way some science fiction does

E|---3---4-----3---------------------------|
B|----------5-----3---2---3-----2----------|
G|---------------------------5-----4---5---|
D|-----------------------------------------|
A|-----------------------------------------|
E|-----------------------------------------|

    Cm   Gm
The way some science fiction does
     D                      Cm
I've got the world on a wire
            D             Cm
In my little mirror, mirror on the wall
        D           Cm       Gm
In the pocket of my raincoat

(Dedilhado da última estrofe)

    Cm
E|---6---5---3-------------------| -------------|
B|------------3---3-----------3--| --3------3---|
G|-------------------5---3------| ------3-------|
D|---------------------5---5----| ----5----5----|
A|-------------------------------| -------------|
E|-------------------------------| -------------|

E|---6---5---3-------------------| ----------------|
B|------------3---3-----------3--| --3---------3---|
G|-----------------5----3-------| ----5---3---5----|
D|-------------------5-----5----| -----------------|
A|-------------------------------| ----------------|
E|-------------------------------| ----------------|

So I tried to write a song to make you blush

But I've a feeling that the whole thing
                                             D
May well just end up too clever for its own good

E|---3---4-----3---------------------------|
B|----------5-----3---2---3-----2----------|
G|---------------------------5-----4---5---|
D|-----------------------------------------|
A|-----------------------------------------|
E|-----------------------------------------|

    Cm  Gm                       Cm Gm
The way some science fiction does
reproducciones 2
Acordes para:
    Composição: Alex Turner / James Ford Colaboración y revision:
    • Matheus Araújo

    0 comentarios

    mostrar más comentarios

    ¿Conseguiste tocar?

    1 tocaron 0 aún no

    ¡Graba un vídeo tocando Science Fiction y envianoslo!

    00:00 / 00:00
    outros vídeos desta música
    repetir qualidade Automático
    Outros vídeos desta música
    00:00 / 00:00
    Automático
    OK