Cifra Club

Settle For a Draw

Arctic Monkeys

Tab de bajo: Principal
G------|
D------|
A 6~---|
E------|


Main riff
G-------------------------------------|
D---------------9-9-9-11-9--8-8-8-6-4 |
A 6-6-6~ 9-9-9~ ----------------------|
E-------------------------------------|


G--------------------------|
D----------9-9-8-8-8-------|
A 9-9-9-9-9----------66666-|
E--------------------------|

G------------------------------|
D 8-6--------------9-9-8-8-8---|
A ---8-6-9-9-9-9-9-----------6-|
E------------------------------|

G--------------------------|
D 999---888----------------|
A-------------666----444---|
E--------------------------|

After the last time in the first chorus:

A 2222--14-14-14-14

The end:
G-----------------|
D ---------8-6----|
A---6--6-4----8-6-|
E-7---6-----------|
reproducciones 55
Composição: Alex Turner Colaboración y revision:
  • Lucas Idalino

0 comentarios

mostrar más comentarios

¿Conseguiste tocar?

0 tocaron 0 aún no

¡Graba un vídeo tocando Settle For a Draw y envianoslo!

00:00 / 00:00
outros vídeos desta música
repetir qualidade Automático
Outros vídeos desta música
00:00 / 00:00
Automático
OK