Cifra Club

Still Take You Home

Arctic Monkeys

Tablatura: Principal (guitarra)
Tom: A#
Intro-
A# Dm C#m x12
A# D# F# F x4

Riff 1:
|----------------------------------------------------------------------------------------|
|----------------------------------------------------------------------------------------|
|----------------------------------------------------------------------------------------|
|--8-8-8-6---------------------------6---------------------6-8-6-8-8-6-8-8-6-8-8-6-8-6~--|
|----------8-8-6-8-8-6-8-8-6-8-8-6-8---8-6-8-6---6-8---6-8-------------------------------|
|----------------------------------------------9-----9-----------------------------------|

Verse-

A#                                         D#              F#        F
Oh, spending all of your money on trendy haircuts that you read were cool
A#                                  D#               F#   F 
And your probably alrite, but under these lights you look beutiful
A#                                       D#       F#  F
And im struglin', I can see through your fake tan
A#                                                                D#    F#  F
And yeh you know it for a fact that everybodies eating out of your hand

Chorus-

D#                C#
   What do you know, O! You know nothing
   A#
   Yeh, But i'll still take you home, yeh I'll still take you home
D#                C#                          A# 
   What do you know, O! You dont know nothing

(bass and lead play riffs, no rhythm guitar)

Verse 2-
 
A#                                      D#                     F#       F
Well fancy seeing you in here, your all tarted up and you dont look the same
A#                                    D#                           F#       F
Well I aint seen you since last year, and suprisingly enough youve forgotten my name.
A#                                       D#       F#  F
But yeh you know it, and you knew it all along
A#                                                                D#     F# F
And yeh you say you have forgotten but your fibbing and wont tell me i'm wrong

Chorus

Riff 2
|---------------------------------|2x
|---------------------------------|
|---------------------------------|
|--------8-8-6--------------------|
|--------------8-7-6--6--9-9-9-8--|
|--6--6---------------------------|

|---------------------------------------------------------------------------------------------|
|---------------------------------------------------------------------------------------------|
|-----------6------6-8-8-8-6---6-8-8-8-6----------------------------6---8/10-6----------------|
|-----8-6-8---8--8-----------8-----------8-8--6-8-8--------6---6-8----8--------8-8-8-8-6------|
|---------------------------------------------------6-8-8----8---------------------------8-6--|
|--6------------------------------------------------------------------------------------------|


Break-
D#            C#             A#
  Woah woah woah, woah woah woah, da da da da dadada da la da da da daa

D#            C#             A#
  Woah woah woah, woah woah WOAH

A# Dm C#m x12

Chorus

Verse 3-

A#                                  D#                   F#        F
So your sold to the fashion, your a top shop princess, a rock star too
A#                                     D#                     F#      F
Wheres the love and the pasion? Well I spose thats nothing to do with you
A#                                D#      F#  F
But its alrite, O I'll put it on one side
A#                                                        D#
Yeh cos everybodies looking, you got control of everyones eyes, 
F#        F        A#
including mine.

[riffs enviados por ze guilherme banda skinner box]
reproducciones 1.526
Acordes para:
    Composição: Alex Turner / Arctic Monkeys Colaboración y revision:
    • Victor Buttignon
    • Isis Oliveira

    0 comentarios

    mostrar más comentarios

    ¿Conseguiste tocar?

    5 tocaron 0 aún no

    ¡Graba un vídeo tocando Still Take You Home y envianoslo!

    00:00 / 00:00
    outros vídeos desta música
    repetir qualidade Automático
    Outros vídeos desta música
    00:00 / 00:00
    Automático
    OK