Cifra Club

Suck It And See

Arctic Monkeys

Tablatura: Principal (guitarra)
Tom: E
      E                              C#m
Your love is like a studded leather headlock
      F#m                              B
Your kiss it could put creases in the rain
        E                                 C#m
You're rarer than a can of dandelion and burdock
          F#m                   B        E
And those other girls are just post mix lemonade


      E                     A             B
E|-------------------|   E|--------------------------------|
B|---5---------------|   B|---10-----10-----12-------------|
G|-----4-------------|   G|------9------9------11-14-13-12-|
D|-2-----------------|   D|-7------7------9----------------|
A|-------------------|   A|--------------------------------|
E|-------------------|   E|--------------------------------|

      F#m         B           C#m
E|-2---2-2-2---2---2-2-2---4-----4~-|
B|-2---2-2-2---4---4-4-4---5--------|
G|-2---2-2-2---4---4-4-4---6--------|
D|-4---4-4-4---4---4-4-4---6---6----|
A|-4---4-4-4---2---2-2-2---4--------|
E|-2---2-2-2------------------------|

      F#m         A      B
E|----------------------------|
B|---7-----7-----10-----12----|
G|-----6-----6------9------11-|
D|-4-----4-----7------9-------|
A|----------------------------|
E|----------------------------|

 E
Suck it and see
            A  B
You never know
 E
Sit next to me
       A  B
Before i go
 F#m               B             C#m
Jigsaw women with horror movie shoes
     F#m            A      B        E
Be cruel to me, coz i'm a fool for you

      E   C#m F#m B                               E   C#m F#m B
E|-------------------------------------------------------------|
B|-------------------------------------------------------------|
G|-------------------------------------------------------------|
D|-------------------------------------------------------------|
A|-7...4...9...2-2-2-7-7-7-7-9-9-9-14-14-14-14-7...4...9...2...|
E|-------------------------------------------------------------|

   E                             C#m
I poured my aching heart into a pop song
    F#m                     B
I couldn't get the hang of poetry
        E                              C#m
That's not a skirt girl, that's a sawn off shotgun
       F#m                   B        E
And i can only hope, you ve got it aimed at me

 E
Suck it and see
            A B
You never know
 E
Sit next to me
       A  B
Before i go
 F#m               B             C#m
Jigsaw women with horror movie shoes
     F#m            A      B       C#m
Be cruel to me, coz i'm a fool for

G#m  C#m  B

[Bridge]

      A
E|-----------------------------|
B|-----------------------------|
G|-2-0----2-0------------------|
D|-----4~-----4~---------------|
A|-----------------------------|
E|-----------------------------|

  A
Bluee
 F#m                   C#m
Moon girls from once upon a Shangri-La
 G#m         C#m             B
How i often wonder where you are
 A
Yooou
 F#m                                A                             B     A
Have got that face that just says "Baby i was made to break your heart"

[Solo]

      A                                                           E
E|------------------------------------------------------------------------|
B|-5~---------------------------------------------------------------------|
G|----4-2-2-2-4-2-1r0b1~-1-2-2-2-4-2-1~-1-2-2-2-4-2-1r0b1~----------------|
D|---------------------------------------------------------6-4-4-4-6-4-2~-|
A|------------------------------------------------------------------------|
E|------------------------------------------------------------------------|


 E      A
Suck it and see
            E  A
You never know
 E        A
Sit next to me
          E  A
Before i go
 E            A              E   A
Jigsaw women with horror movie shoes
     F#m            A      B        E
Be cruel to me, coz i'm a fool for you
reproducciones 27.572
Acordes para:
    Composição: Alex Turner / Arctic Monkeys Colaboración y revision:

    0 comentarios

    mostrar más comentarios

    ¿Conseguiste tocar?

    107 tocaron 0 aún no

    ¡Graba un vídeo tocando Suck It And See y envianoslo!

    00:00 / 00:00
    outros vídeos desta música
    repetir qualidade Automático
    Outros vídeos desta música
    00:00 / 00:00
    Automático
    OK