Cifra Club

Teddy Picker

Arctic Monkeys

Tablatura: Principal (guitarra)
Tom: D
E|----------------------------------------|
B|----------------------------------------|
G|----------------------------------------|
D|----------------------------------------|
A|-----6-5-------6-5-------6-5-------6-5--|
E|-5-5-----4-5-5-----4-5-5-----4-5-5------|

E|--------------------------------------------|
B|--------------------------------------------|
G|--------------------------------------------|
D|--------------------------------------------|
A|-----------------------------6-5-------6-5--|
E|-5-0-0-4-0--5-0-0-4-0--7-5-5-----4-5-5------|

E|------------|
B|------------|
G|------------|Repeat
D|------------|
A|--------6-5-|
E|-4-5-5------|

E|----------------------------------------|
B|----------------------------------------|
G|----------------------------------------|
D|----------------------------------------|
A|-----6-5-------6-5-------6-5-------6-5--|
E|-5-5-----4-5-5-----4-5-5-----4-5-5------|

Refrão:

E|-----------------------------------------|
B|--------13-15-12----10101010101010101010-|
G|----14--------------99999999999999999999-|
D|-15-----------------77777777777777777777-|
A|-----------------------------------------|
E|-----------------------------------------|

E|------------------------------------|
B|------13-15-12----------------------|
G|---14-----------8888888888888888888-|
D|15--------------8888888888888888888-|
A|----------------6666666666666666666-|
E|------------------------------------|

E|-----------------|
B|-----------------|
G|-----------------|
D|-----------------|
A|------0-6-5------|Repeat
E|--5-5------------|

Depois

E|---------------------|
B|---------------------|
G|---------------------|
D|---------------------|
A|------6-5--------6-5-|
E|--5-5-----4-5-5------|

Refrão:

E|-----------------------------------------|
B|--------13-15-12----10101010101010101010-|
G|----14--------------99999999999999999999-|
D|--------------------77777777777777777777-|
A|-----------------------------------------|
E|-----------------------------------------|

E|-----------------------------------------|
B|--------13-15-15-13-12-10----------------|
G|-----14-------------------9--------------|
D|--15-------------------------------------|
A|-----------------------------------------|
E|-----------------------------------------|

(solo)

E|-0-0-0--5/13-12---12-12-12-12/15-15-15--|(x2)
B|----------------------------------------|
G|----------------------------------------|
D|----------------------------------------|
A|----------------------------------------|
E|----------------------------------------|

E|--0-0---17---------------------15-15-15----0-0-17-------------------|
B|-----------18-17---17-17-17-17--------------------18-17-15-13-12-10-|
G|--------------------------------------------------------------------|
D|--------------------------------------------------------------------|
A|--------------------------------------------------------------------|
E|--------------------------------------------------------------------|

E|--5-5/-17-17t---5-5/17-17t--5-5/17-17t---5-5/17-17t---|
B|--5-5-----------5-5---------5-5----------5-5----------|
G|------------------------------------------------------|
D|------------------------------------------------------|
A|------------------------------------------------------|
E|------------------------------------------------------|

E|--17-17-17--17-17-15--15-15-13--13-12-----------------17--|
B|--------------------------------------13-12----17---------|
G|--------------------------------------------14------------|
D|----------------------------------------------------------|
A|----------------------------------------------------------|
E|----------------------------------------------------------|

Cai para o Refrão;(Parte Final)
E|-----------------------------------------|
B|--------13-15-12----10101010101010101010-|
G|----14--------------99999999999999999999-|(2x)
D|-15-----------------77777777777777777777-|
A|-----------------------------------------|
E|-----------------------------------------|

Depois:
E|--------------------------------|
B|-----------10--1010101010101010-|
G|---10--9----9--9999999999999999-|
D|---10--9----7--7777777777777777-|
A|----8--7------------------------|
E|--------------------------------|

E|-------------------------------|
B|-----------10------------------|
G|---10--9----9----888888888888--|
D|---10--9----7----888888888888--|
A|----8--7---------666666666666--|
E|-------------------------------|

E|----------------------------------------|
B|----------------------------------------|
G|----------------------------------------|
D|----------------------------------------|
A|-----6-5-------6-5-------6-5-------6-5--|
E|-5-5-----4-5-5-----4-5-5-----4-5-5------|

E|----------------------------------------|
B|----------------------------------------|
G|----------------------------------------|
D|----------------------------------------|
A|----------------------------------------|
E|-5-0-0-4-0--5-0-0-4-0--4-------5--------|

(Alex usa uma espécie de Tremolo/Phaser
(Vibrato nas notas na 17ª casa) pra tocar esse solo)
reproducciones 11.688
Acordes para:
    Composição: Alex Turner / Arctic Monkeys Colaboración y revision:

    0 comentarios

    mostrar más comentarios

    ¿Conseguiste tocar?

    29 tocaron 0 aún no

    ¡Graba un vídeo tocando Teddy Picker y envianoslo!

    00:00 / 00:00
    outros vídeos desta música
    repetir qualidade Automático
    Outros vídeos desta música
    00:00 / 00:00
    Automático
    OK