Cifra Club

This House Is a Circus

Arctic Monkeys

Tablatura: Principal (guitarra)
Tom: A
I: Intro/Verse (repeat as many times as you need)

E |--2-3----3-2-------------|
B |--3-4----4-3-------------|
G |--4-5----5-4-------------|
D |-------------------------|
A |-------------------------|
E |-------------------------|

II: Chorus (repeat as many times as needed)

And we're... forever unfulfilled

E |----------------------------------|
B |----------------------------------|
G |----------------------------------|
D |----------------------------------|
A |-------9--5--------9--5-----------|
E |--7--5--------7--5----------------|

Ending Part

E |----------------------------------|
B |----------------------------------|
G |----------------------------------|
D |----------------------------------|
A |-------9--------------------------|
E |--7--5----------------------------|


III: Breakdown
Actually the same thing as the Chorus, but played with Powerchords

E |-------------------------------------------------------------------------------------|
B |-------------------------------------------------------------------------------------|
G |----------------11--7--7-77------7-----------------11--7--7-77------7----------------|
D |--9--9-99--7-9--11--7--7-77--7-9-7---9--9-99--7-9--11--7--7-77--7-9-7----------------|
A |--7--9-99--7-9--9---5--5-55--7-9-5---7--9-99--7-9--9---5--5-55--7-9-5----------------|
E |--7--7-77--5-7---------------5-7-----7--7-77--5-7---------------5-7------------------|

After a while, the second guitar plays:

E |--7h10--7h10--7h10--7h10--7h10-7h11-7h10-7h11-7h10-7h11-7h10-7h11-|
B |------------------------------------------------------------------|
G |------------------------------------------------------------------|
D |------------------------------------------------------------------|
A |------------------------------------------------------------------|
E |------------------------------------------------------------------|

Repeat that twice, then play:

IV: Bridge

E |----------------------------------------------|
B |----------------------------------------------|
G |--9--9-7--7-11--11-7-6------------------------|
D |--9--9-7--7-11--11-7-6------------------------|
A |--7--7-5--5-9---9--5-4------------------------|
E |----------------------------------------------|

E |----------------------------------------------|
B |----------------------------------------------|
G |-------------7-------------7------------------|
D |--9-9-99-7-9-7--9-9-99-7-9-7------------------|
A |--9-9-99-7-9-5--9-9-99-7-9-5------------------|
E |--7-7-77-5-7----7-7-77-5-7--------------------|

Repeat the Bridge as many times as needed

Ending Part

E |----------------------------------------------|
B |----------------------------------------------|
G |--9--9-7--7-11--11-7-6------------------------|
D |--9--9-7--7-11--11-7-6-9----------------------|
A |--7--7-5--5-9---9--5-4-9----------------------|
E |-----------------------7----------------------|

V: Verse riff comes back in

E |--2-3----3-2-------------|
B |--3-4----4-3-------------|
G |--4-5----5-4-------------|
D |-------------------------|
A |-------------------------|
E |-------------------------|

After playing this twice, the second guitar comes back in; Guitar one keeps playing the Verse-Chords

play this once:
E |--------------------------------------------------------------|
B |--------------------------------------------------------------|
G |--------------------------------------------------------------|
D |--------------------------------------------------------------|
A |-------------5--------------5---------------5-----------------|
E |--7-7-77-5-7-----7-7-77-5-7------7-7-77-5-7------7-7-77-5-2-1-|

play this 4 times:
E |----------------------------------|
B |----------------------------------|
G |----------------------------------|
D |----------------------------------|
A |-------9--5--------9--5-----------|
E |--7--5--------7--5----------------|

VI: Outro

Guitar 1 (repeat that riff as many times as needed)
E |--------------------------------------------|
B |--------------------------------------------|
G |--------------------------------------------|
D |--------------------------------------------|
A |------------9999-5555-----------------------|
E |--777777-55---------------------------------|

After playing this 4 times, Guitar 2 comes in with it's outro riff:

E |----------------------------------------------------|
B |----------------------------------------------------|
G |------------5555--7777-------------5555--7777-------|
D |--99999999--5555--7777---99999999--5555--7777-------|
A |--99999999--3333--5555---99999999--3333--5555-------|
E |--77777777---------------77777777-------------------|

E |----------------------------------------------------|
B |----------------------------------------------------|
G |------------5555--7777--11111111-9999-7777-5555-----|
D |--99999999--5555--7777--11111111-9999-7777-5555--9--|
A |--99999999--3333--5555--9-9-9-9--7777-5555-3333--9--|
E |--77777777---------------------------------------7--|
reproducciones 617
Acordes para:
    Composição: Alex Turner / Arctic Monkeys Colaboración y revision:
    • washington moreira

    0 comentarios

    mostrar más comentarios

    ¿Conseguiste tocar?

    4 tocaron 0 aún no

    ¡Graba un vídeo tocando This House Is a Circus y envianoslo!

    00:00 / 00:00
    outros vídeos desta música
    repetir qualidade Automático
    Outros vídeos desta música
    00:00 / 00:00
    Automático
    OK