Cifra Club

Too Much To Ask

Arctic Monkeys

Tablatura: Principal (guitarra)
Tom: C
         Em          B7     Dm    Am
E|-------------------------1----8------------------------------------|
B|-------------------------3----10-----------------------------------| 
G|------0-------------0----2----9------------------------------------|
D|-----2--2/5-4\1---1----0-------------------------------------------|
A|----2-----------2-----------0--------------------------------------|
E|---0---------------------------------------------------------------|

                                                                   
      Em                       B7
His smiles as she walked in the room                                
      Dm                          Am
have all turned into frowns am I too quick to assume                 
         Em                    B7
that the love is no longer in bloom                                  
       Dm                          Am
The tantrums and the tears play a very different tunes to what they  
 Em                B7
   did before Their heads red raw                                     
         Dm                             Am
And the ending doesn't sound like the happiest around When you       
 Em               B7                      Dm
sobbed before it felt much more like the product of the squabble    
            B7
Now there's reason for it to be something more                     

                                                               
  Am
And there would be                                               
                                       G
Oh it's uncertain whether the curtain has shut for good. She      
                                                           Am
said "see if it's still raining but I'm not dressed for it, and  
                                                                 
if you loved me                                                  
                                         B7
And I interrupt to receive the scowl and stare                   
                                                                 
But still decided to stop her there                            
  

Riff 2

                                                                    
         Em                   B7
Would it be too outrageous to say                                    
              Dm                                   Am
We're either shouting or we're shagging docked in tempestuous bays     
    Em                           B7
At least that's how we felt yesterday                                 
   Dm                              Bm*           B7       Am
The eyes are getting heavier and whether you're sleep or awake      

                                                                    
It's a mistery                                                 
                            G
Would a kiss be too much to ask                                       
                                                            Am
When you fit me as sunday's frozen pitch fits the thermos flask       
                                                                      
It's a pity                                                           
                           B7
It just hit me we can't go back                                       
                                                     
To the chest touching on the back                                   

(Solo)

Riff 2:

E|------------|
B|------------|
G|------------|
D|------------|
A|------------|
E|---3-2-0----|

Riff 1:

E|-------7-------------------7---------10-----|
B|-----8---8-10-8-8--------8---8-10/12--------|
G|---9--------------9----8--------------------|
D|--------------------------------------------|
A|--------------------------------------------|
E|--------------------------------------------|

E|--------------------------------------------|
B|-----10-12-13-12-10----10------8-10/12-8----|
G|--10----------------10-------9--------------|
D|--------------------------------------------|
A|--------------------------------------------|
E|--------------------------------------------|

E|-------7-------------------7---------10-----|
B|-----8---8-10-8-8--------8---8-10/12--------|
G|---9--------------9----8--------------------|
D|--------------------------------------------|
A|--------------------------------------------|
E|--------------------------------------------|
                              
                              B7  B7   Am

E|---------------------------|-2-|-7-|-5-|
B|-----10-12-13-12-10----10--|-4-|-7-|-5-|
G|--10----------------10-----|-2-|-8-|-5-|
D|---------------------------|-4-|-7-|-7-|
A|---------------------------|-2-|-9-|-7-|
E|---------------------------|---|-7-|-5-|



Solo: (a partir do Riff 2 do Verso 2)


E|-------|-------------------------------------|
B|-------|-------------------------------------|
G|-------|-------------------------------------|
D|-------|-2-2-4-5/10---7-9-7-9-7---5-7-5-7-5--|
A|-------|-------------------------------------|
E|-3-2-0-|-------------------------------------|

E|---------------------------------------------|
B|---------------------------------------------|
G|---------------------------------------------|
D|-2--2-2-4-5/10-9--10\-7~---5-7--5-7-5-7-5-4~-|
A|---------------------------------------------|
E|---------------------------------------------|
reproducciones 3.094
Acordes para:
    Composição: Alex Turner Colaboración y revision:
    • Ramon Pacheco
    • vinicius tavares
    • Lucas Ribeiro

    0 comentarios

    mostrar más comentarios

    ¿Conseguiste tocar?

    14 tocaron 0 aún no

    ¡Graba un vídeo tocando Too Much To Ask y envianoslo!

    00:00 / 00:00
    outros vídeos desta música
    repetir qualidade Automático
    Outros vídeos desta música
    00:00 / 00:00
    Automático
    OK