Cifra Club

Why'd You Only Call Me When You're High?

Arctic Monkeys

Tablatura: Principal (guitarra)
Tom: D
[Intro]  F#m  D  Bm

[Intro/Verso]

E|-----------------------------------|
B|-----------------------------------|
G|-----------------------------------|
D|-----------------------------------|
A|----4-5-5--2--4-2------------------|
E|-2----------------0----------------|

[Chorus]

E|-------------------------------------|
B|-------2-3-5-3-2-------2-------------|
G|---2-4-----------4-2-4---4-2---2-----|
D|-4---------------------------4-------|
A|-------------------------------------|
E|-------------------------------------|

[Verso]

E|-------------------9-10-7-9----------|
B|-------------------------------------|
G|----11-11-11-11-11-------------------|
D|-------------------------------------|
A|-------------------------------------|
E|-------------------------------------|

  F#m             D         Bm
The mirror's image tells me it's home time
 F#m                  D                Bm
But I'm not finished 'cause you're not by my side
F#m                                  D       Bm
And as I arrived I thought I saw you leaving, carrying your shoes
F#m                               D        Bm
Decided that once again I was just dreaming of bumping into you

F#m                       D
    Now it's three in the morning
        Bm                    F#m
And I'm trying to change your mind
                         D
Left you multiple missed calls
          Bm           F#m
And to my message, you reply

F#m                                     D     Bm
     Why'd you only call me when you're high?
F#m                                      D    Bm
High, why'd you only call me when you're high?

Somewhere darker, talking the same shite
I need a partner (high), well, are you out tonight?
It's harder and harder to get you to listen, more I get through the gears
Incapable of making alright decisons and having bad ideas

Now it's three in the morning
And I'm trying to change your mind
Left you multiple missed calls
And to my message, you reply (message, you reply)

Why'd you only call me when you're high?
(Why'd you only call me when you're)
High, why'd you only call me when you're high? 

( Bm  D )

             F#m                     Bm   D
And I can't see you here, wonder where am I
          F#m                       Bm  D
It sorta feels like I'm running out of time
           F#m                     Bm  D
I haven't found what I was hoping to  find

                    C#
You said you gotta be up in the morning, gonna have an early night         
             C#
And you're starting to bore me, baby, why'd you only call me when you're high?

( D  F#m  Bm  D  F#m )

          D           Bm                  F#m
Why'd you only ever phone me when you're high?
          D           Bm                  F#m
Why'd you only ever phone me when you're high?
          D           Bm                  F#m
Why'd you only ever phone me when you're high?
          D           Bm
Why'd you only ever phone me when you're high?

[Riff Final]

E|-------------------------------------------|
B|-14-17-15-14-------------14----------------|
G|-------------14-16-14-16-------------------|
D|-------------------------------------------|
A|-------------------------------------------|
E|-------------------------------------------|

E|-------------------------------------------|
B|-14-17-15-14-------------------------------|
G|-------------14-16-14-16-------------------|
D|-------------------------16----------------|
A|-------------------------------------------|
E|-------------------------------------------|
reproducciones 17.943
Acordes para:

    0 comentarios

    mostrar más comentarios

    ¿Conseguiste tocar?

    44 tocaron 5 aún no

    ¡Graba un vídeo tocando Why'd You Only Call Me When You're High? y envianoslo!

    00:00 / 00:00
    outros vídeos desta música
    repetir qualidade Automático
    Outros vídeos desta música
    00:00 / 00:00
    Automático
    OK