Cifra Club

Why'd You Only Call Me When You're High?

Arctic Monkeys

Cifrado: Principal (guitarra y guitarra eléctrica)
tono: Bm
[Intro] 

E|-----------------------------------------------------|
B|-----------------------------------------------------|
G|-----------------------------------------------------| (2x)
D|-----------------------------------------------------|
A|------4-5----5--2----4-2-----------------------------|
E|-2--------------------------0------------------------|

[Primeira Parte] 

E|-----------------------------------------------------|
B|-----------------------------------------------------|
G|-----------------------------------------------------| (4x)
D|-----------------------------------------------------|
A|------4-5----5--2----4-2-----------------------------|
E|-2--------------------------0------------------------|

The mirror's image
Tells me it's home time
But I'm not finished
'Cause you're not by my side
And as I arrive 
I thought I saw you leaving
Carrying your shoes
Decided that once again
I was just dreaming
Of bumping into you

[Refrão 1] 

[Tab - Refrão 1 - Guitarra 1]

E|-----------------------------------------------------|
B|-----------------------------------------------------|
G|-----------------------------------------------------| (4x)
D|-----------------------------------------------------|
A|------4-5----5--2----4-2-----------------------------|
E|-2--------------------------0------------------------|

[Tab Refrão 1 - Guitarra 2]

E|-----------------------------------------------------|
B|-------2-3-5-3-2-------2-----------------------------|
G|---2-4-----------4-2-----4-2-------------------------| (5x)
D|-4-------------------4-------4-2---------------------|
A|-----------------------------------------------------|
E|-----------------------------------------------------|

Now it's three in the morning
And I'm trying to change your mind
Left you multiple missed calls
And to my message you replied
Why'd you only call me 
When you're high?
Hi, why'd you only call me
When you're high?

[Segunda Parte] 

Somewhere darker
Talking the same shite
I need a partner
Well, are you out tonight?
It's harder and harder 
To get you to listen
More I get through the gears
Incapable of making alright decisions
And having bad ideas

[Tab - Segunda Parte - Guitarra 3]

E|-----------------------------------------------------|
B|----------------------------------14-15-14-12-14-----|
G|-11-11-11-11-11-11-11-11-11-11-11--------------------| (4x)
D|-----------------------------------------------------|
A|-----------------------------------------------------|
E|-----------------------------------------------------|

[Tab - Segunda Parte - Guitarra 4]

E|-----------------------------------------------------|
B|-----------------------------------------------------|
G|-18\--11---------------------------------------------|
D|-----------------------------------------------------|
A|-----------------------------------------------------|
E|-----------------------------------------------------|

[Refrão 2] 

[Tab - Refrão - Guitarra 2]

E|-----------------------------------------------------|
B|-------2-3-5-3-2-------2-----------------------------|
G|---2-4-----------4-2-----4-2-------------------------| (4x)
D|-4-------------------4-------4-2---------------------|
A|-----------------------------------------------------|
E|-----------------------------------------------------|

E|-----------------------------------------------------|
B|-----------------------------------------------------|
G|-11-11-11-11-11-11-11-11-11-11-11-11-11-11-11-11-----| (4x)
D|-----------------------------------------------------|
A|-----------------------------------------------------|
E|-----------------------------------------------------|

E|-----------------------------------------------------|
B|-----------------------------------------------------|
G|-18\--11---------------------------------------------|
D|-----------------------------------------------------|
A|-----------------------------------------------------|
E|-----------------------------------------------------|

Now it's three in the morning
And I'm trying to change your mind
Left you multiple missed calls
And to my message you replied 
Why'd you only call me 
When you're high?
Hi, why'd you only call me 
When you're high?

[Ponte] 

Bm  D              F#m
      And I can't see you here
                Bm   D
Wonder where I might 
         F#m
Sort of feels like 
                     Bm  D
I am running out of time
           F#m
I haven't found what 
                 Bm  D
I was hoping to find
                    C#
You said you gotta be up 

In the morning

Gonna have an early night

And you're starting to bore me, baby

Why'd you only call me 
             
When you're high?

[Solo] D  F#m

Parte 1 De 4
E|-----------------------------------------------------|
B|-------14-17-15-14-----------------------------------|
G|-------------------14-16-14-16b18r16-----------------|
D|-/16~------------------------------------------------|
A|-----------------------------------------------------|
E|-----------------------------------------------------|

E|-----------------------------------------------------|
B|-----------------------------------------------------|
G|-----14-16b18----------------------------------------|
D|-/16-------------16~---------------------------------|
A|-----------------------------------------------------|
E|-----------------------------------------------------|

Parte 2 De 4
E|-----------------------------------------------------|
B|-------14-17-15-14-----------------------------------|
G|-------------------14-16-14-16-----------------------|
D|-------------------------------16~-------------------|
A|-----------------------------------------------------|
E|-----------------------------------------------------|

E|-----------------------------------------------------|
B|-----------------------------------------------------|
G|-16b18----16--14-------------------------------------|
D|-----------------16~---------------------------------|
A|-----------------------------------------------------|
E|-----------------------------------------------------|

Parte 3 De 4
E|-----------------------------------------------------|
B|-------14-17-15-14-----------------------------------|
G|-------------------14-16-14-16b18r16-----------------|
D|-----------------------------------------------------|
A|-----------------------------------------------------|
E|-----------------------------------------------------|

E|-----------------------------------------------------|
B|-----------------------------------------------------|
G|-----------------------------------------------------|
D|-----14-16b18----14~---------------------------------|
A|-/16-------------------------------------------------|
E|-----------------------------------------------------|

Parte 4 De 4
E|-----------------------------------------------------|
B|-------14-17-15-14-----------------------------------|
G|-------------------14-16-14-16-----------------------|
D|-------------------------------16~-------------------|
A|-----------------------------------------------------|
E|-----------------------------------------------------|

E|-----------------------------------------------------|
B|-----------------------------------------------------|
G|-----------------------------------------------------|
D|-----14-16b18----------------------------------------|
A|-/16-------------------------------------------------|
E|-----------------------------------------------------|

[Final] 

          D
Why'd you only ever phone me 
             F#m
When you're high?
          D
Why'd you only ever phone me 
             F#m
When you're high?
          D
Why'd you only ever phone me 
             F#m
When you're high?
          D
Why'd you only ever phone me 
             
When you're high?
00:00 / 00:00
Otros videos de esta canción
Repetir
Otros videos de esta canción
Composición de Alex Turner
47.511 vistas
    • ½ Tono
    • Am
    • Bbm
    • Bm
    • Cm
    • C#m
    • Dm
    • Ebm
    • Em
    • Fm
    • F#m
    • Gm
    • G#m
  • Agregar a la lista

    0 comentarios

    Ver todos los comentarios

    ¿Lograste tocar?

    95 Tocaron 13 Aún no

    ¡Graba un video tocando Why'd You Only Call Me When You're High? y envíanoslo!

    00:00 / 00:00
    Capítulos
    • Tocando a Música
    • Ensinando Introdução
    • Ensinando Primeira Parte
    • Ensinando Primeiro Refrão
    • Ensinando Segunda Parte
    • Ritmo do Segundo Refrão
    • Ensinando Solo
    • Encerramento
    OK