Cifra Club

You And I

Arctic Monkeys

Tablatura: Principal (guitarra)
Tom: A
Intro:

|-------------|
|-------------|
|-------------|
|--2-2---2-5-5|
|--2-2---2-5-5|
|--0-0---0-3-3| (2x)

Refrão:

|-------------|
|-------------|
|-------------|
|-7------9----|
|-7(x12)-9(x4)|
|-5------7----| (2x)

Solo:

|-----------------------------------------------------------------------|
|----------14b14b14-12/9-11-14-12-9-7----------------9/12-14------------|
|-13/16-16----------------------------7-9--7-9-7-9-7---------12/9-7-5/3-|
|-----------------------------------------------------------------------|
|-----------------------------------------------------------------------|
|-----------------------------------------------------------------------|

-------------------------|
-/5-/7-/9-/12-/9-/12-/14-|
-------------------------|
-------------------------|
-------------------------|
-------------------------|
reproducciones 410
Acordes para:
    Composição: Alex Turner Colaboración y revision:
    • Gabriel Prestes

    0 comentarios

    mostrar más comentarios

    ¿Conseguiste tocar?

    0 tocaron 0 aún no

    ¡Graba un vídeo tocando You And I y envianoslo!

    00:00 / 00:00
    outros vídeos desta música
    repetir qualidade Automático
    Outros vídeos desta música
    00:00 / 00:00
    Automático
    OK