Cifra Club

Cansado de Esperar

Area 69

Cifrado: Principal (guitarra y guitarra eléctrica)
Quer fazer aulas de música com a gente? Responda essas perguntas
e nos ajude nesse projeto! →
tono: C
Intro:
E|---------------------------------------------|
B|---------------------------------------------|
G|---------------------------------------------|
D|---------------------------------------------|
A|--3-3-3-5-3-3-7-3-3-5-3-0-------7-5------5-3-|
E|--------------------------3-3-3----3-1-1-----|

E|---------------------------------------------|
B|---------------------------------------------|
G|---------------------------------------------|
D|---------------------------------------------|
A|--3-3-3-5-3-3-7-3-3-5-3-0-------7-5------5-3-|
E|--------------------------3-3-3----3-1-1-----|

E|---------------------------------------------|
B|---------------------------------------------|
G|---------------------------------------------|
D|---------------------------------------------|
A|--3-3-3-5-3-3-7-3-3-5-3-0-------7-5------5-3-|
E|--------------------------3-3-3----3-1-1-----|

E|---------------------------------------------|
B|---------------------------------------------|
G|---------------------------------------------|
D|---------------------------------------------|
A|--3-3-3-5-3-3-7-3-3-5-3-0-------7-5------5-3-|
E|--------------------------3-3-3----3-1-1-----|

 Cm                 Cm
Hoy estoy un poco loco
                    F
Estoy cansado de esperar
 Cm                   Cm
La cerveza esta en la mesa
                       F
Un par de cigarrillos y a fumar

 G               F
No soporto este dolor
      F
(nana nana nana)
 G               F
Ya no quiero tu amor
      F
(nana nana nana)
 G              F
Tanto timepo y sigo igual
      F
(nana nana nana)
G
Ya no quiero verte...

(pre-refrão)  F F F G G G

Refrão:
 Cm                           G
Porque ha pasado mucho tiempo y estoy
  F           G
Cansado de esperar
 Cm                   G
Y en una habitacion sin luz
      F        G
Cansado de esperar
 Cm                        G
Porque ha pasado mucho tiempo y estoy
  F           G
Cansado de esperar
 Cm            G
Tocando este sucio
 F
Punk rock
  F  F  F   G   G  G
Soy hey ho lets go!

     Cm                     G        F
E|---------------------------------------------|
B|---------------------------------------------|
G|---------------------------------------------|
D|---------------------------------------------|
A|--3-3-3-5-3-3-7-3-3-5-3-0-------7-5------5-3-|
E|--------------------------3-3-3----3-1-1-----|

Hey ho lets go!

     Cm                     G        F
E|---------------------------------------------|
B|---------------------------------------------|
G|---------------------------------------------|
D|---------------------------------------------|
A|--3-3-3-5-3-3-7-3-3-5-3-0-------7-5------5-3-|
E|--------------------------3-3-3----3-1-1-----|

 Cm                  Cm
Ayer estuve un poco loco
                      F
Hoy ya no quiero esperar
 Cm               Cm
Otra vez estoy tirado
                             F
Y así la historia vuelve a comenzar

G                  F
No soporto este dolor
      F
(nana nana nana)
G                  F
Ya no quiero tu amor
      F
(nana nana nana)
G                   F
Tanto tiempo y sigo igual
      F
(nana nana nana)
 G
Ya no quiero verte...
F F F G G G
Una vez mas si

Refrão:
 Cm                           G
Porque ha pasado mucho tiempo y estoy
  F             G
Cansado de esperar
 Cm                   G
Y en una habitacion sin luz
      F         G
Cansado de esperar
 Cm                        G
Porque ha pasado mucho tiempo y estoy
  F            G
Cansado de esperar
 Cm            G
Tocando este sucio
 F
Punk rock
 F   F   F      G
Soy hey oh lets go!

Solo: Cm Cm G F

G                  F
No soporto este dolor
      F
(nana nana nana)
G                  F
Ya no quiero tu amor
      F
(nana nana nana)
G                   F
Tanto tiempo y sigo igual
      F
(nana nana nana)
 G                   F
Ya no quiero verte...

Refrão:
 Cm                           G
Porque ha pasado mucho tiempo y estoy
  F           G
Cansado de esperar
 Cm                   G
Y en una habitacion sin luz
      F       G
Cansado de esperar
 Cm                        G
Porque ha pasado mucho tiempo y estoy
  F           G
Cansado de esperar
 Cm            G
Tocando este sucio
 F    F
Punk rock
 F    G    G    G  (Sigue en la parte de reggae)
Soy hey oh lets go! (la parte final es solo Cm)
Hey oh lets go!
Hey oh lets go!
Hey oh lets go!
Hey oh lets go!
Compositor não encontrado.
Colaboración y revisión:
  • diego
  • Marcelo Rivas
136 vistas
    • ½ Tono
    • A
    • Bb
    • B
    • C
    • Db
    • D
    • Eb
    • E
    • F
    • F#
    • G
    • Ab
  • Agregar a la lista

    0 comentarios

    Ver todos los comentarios

    ¿Lograste tocar?

    0 Tocaron 0 Aún no

    ¡Graba un video tocando Cansado de Esperar y envíanoslo!

    00:00 / 00:00
    Outros vídeos desta música
    Repetir Calidad Automático
    Outros vídeos desta música
    00:00 / 00:00
    Automático
    OK