Cifra Club

Dime Como

Area 69

Cifrado: Principal (guitarra y guitarra eléctrica)
Quer fazer aulas de música com a gente? Responda essas perguntas
e nos ajude nesse projeto! →
tono: E
E5     G#5               C#5
Ya no encuentro la salida
A5             E5
para poder escapar
         G#5              C#5
y me siento frente al viento
 A5                E5
ya no puedo respirar .
        G#5         C#5         A5            E5
Y aquí estoy perdiéndome entre fotos y recuerdos
        G#5           C#5          A5       E5 G#5 C#5
siento que ya todo fue y que no vas a volver.
   A5                E5 G#5 C#5 E5
dime como hay que hacer.


 E5         G#5         C#5
Mutilas todo lo que tengo
     A5                   E5
cada vez que pienso en vos
       G#5           C#5               A5
los momentos más felices, todos son excusas
     E5
pero,
           G#5          C#5      A5             E5
Y  aquí estoy pudriéndome entre fotos y recuerdos
       G#5         C#5    A5                E5
siento que ya todo fue y que no vas a volver.


Refrão:
E5          G#5      C#5         A5           E5
Estoy contra la pared y no encuentro la salida
        G#5          C#5         A5         E5
y me pierdo en el tiempo y no puedo olvidarte
       G#5         C#5         A5          E5
dime como hay que hacer para poder olvidarte
        G#5        C#5        A5   E5
y dime como hay que hacer. Dime como.


Solo:
E|----------------------------------------------|
B|----------------------------------------------|
G|----------------------------------------------|
D|---9-9-11-9------9-9-11-9---------------------|    (2x)
A|-----------11------------11----11-11-9----9---|
E|----------------------------------------1212---|


E5        G#5            C#5
Ya ha pasado tanto tiempo
          A5         E5
desde la vez que te vi
     G#5               C#5
vos sobrando entre la gente,
          A5          E5
y yo fingiendo estar feliz.
           G#5          C#5      A5              E5
Y  aquí estoy perdiéndome entre fotos y recuerdos
       G#5         C#5    A5                E5
siento que ya todo fue y que no vas a volver.
Coro
E5          G#5      C#5         A5           E5
Estoy contra la pared y no encuentro la salida
        G#5          C#5         A5         E5
y me pierdo en el tiempo y no puedo olvidarte
       G#5         C#5         A5          E5
dime como hay que hacer para poder olvidarte
        G#5        C#5       A5      E5
y dime como hay que hacer.Un dos tres, va!


Solo:
E|-------------------------------------------|
B|-------------------------------------------|
G|-------------------------------------------|
D|--9-9-11-9-----9-9-11-9--------------------|
A|----------11-----------11---11-11-9----9---|
E|-------------------------------------1212---|

E|-------------------------------------12---|
B|------------------------------9-10-12-----|
G|---------------------9----9-11------------|
D|--9-9-11-9-----9-9-11---------------------|
A|----------11------------------------------|
E|------------------------------------------|


E5        G#5            C#5
Ya ha pasado tanto tiempo
          A5         E5
desde la vez que te vi
     G#5               C#5
vos sobrando entre la gente,
          A5  E5
y yo fingiendo


(Refrão)  (x2)


E5          G#5      C#5         A5           E5
Estoy contra la pared y no encuentro la salida
        G#5          C#5         A5         E5
y me pierdo en el tiempo y no puedo olvidarte
       G#5         C#5         A5          E5
dime como hay que hacer para poder olvidarte
        G#5        C#5        A5   E5
y dime como hay que hacer. Dime como.
Compositor não encontrado.
Colaboración y revisión:
  • Angel Rodriguez
195 vistas
    • ½ Tono
    • A
    • Bb
    • B
    • C
    • Db
    • D
    • Eb
    • E
    • F
    • F#
    • G
    • Ab
  • Agregar a la lista

    0 comentarios

    Ver todos los comentarios

    ¿Lograste tocar?

    1 Tocaron 0 Aún no

    ¡Graba un video tocando Dime Como y envíanoslo!

    00:00 / 00:00
    Outros vídeos desta música
    Repetir Calidad Automático
    Outros vídeos desta música
    00:00 / 00:00
    Automático
    OK