Cifra Club

Start Making Sense

Area 7

Cifrado: Principal (guitarra y guitarra eléctrica)
tono: Bb
Tabbed by Brett Massingham, *.
  
Album: Bitter & Twisted
Tabbed by: Brett Massingham
E-Mail: *

Standard Tuning

Intro:

E|-3-3-3-3-3-xxx-----------xxx-----------xxx|
B|-----------xxx-----------xxx-----------xxx|
G|-----------xxx-----------xxx-3-3-3-3-3-xxx|
D|-----------xxx-3-3-3-3-3-xxx-----------xxx|
A|-----------xxx-----------xxx-----------xxx|
E|-----------xxx-----------xxx-----------xxx|

E|-------------------------|
B|---4-3-4-3-4-3-4-3-4-3---|
G|-------------------------|
D|-------------------------|
A|-------------------------|
E|-------------------------|

xxx = Saxophone and Trumpet solo

So far I know the intro.

That's basically it.

 
:: Ultimate Guitar Archive :: 
http://* 



00:00 / 00:00
Otros videos de esta canción
Repetir
Otros videos de esta canción
Compositor no encontrado.
17 exhibiciones
    • ½ Tono
    • A
    • Bb
    • B
    • C
    • Db
    • D
    • Eb
    • E
    • F
    • F#
    • G
    • Ab
  • Agregar a la lista
    00:00 / 00:00
    OK