Cifra Club

Olvidarte

Ricardo Arjona

Cifrado: Versão 3 (guitarra y guitarra eléctrica)
tono: D
  sirve de base para todas las estrofas.

E|---------6-----4------------7-----4-------------|
B|--------------------5-4-------------------------|
  D 2---------------------------------------8---6---
E|---0--0----------4------------------------------|
B|--0--0---4-7---5--------4---5-5---5-5-----8---4-|
G|-1--1-----4-4---6------4-4---6-6---6-6---9---5--|

E|--------------2h4-2-------------------------------|
B|---------------------4--------------------2-------|
  D 6------7------------------------------------------
E|----4--------------------5-4------------------1---|
B|--5------5-5----------4------7-5h7-7-5-5----2---2-|
G|-6-6----6-6------------4--------------6-6--3-3-3-3|

E|------------|
  A 6--4--2--0--
D|------------|
  G 8--6--4--2--
B|------------|
  E 7--5--4--2--
Composición de Ricardo Arjona
    • ½ Tono
    • A
    • Bb
    • B
    • C
    • Db
    • D
    • Eb
    • E
    • F
    • F#
    • G
    • Ab
  • Agregar a la lista

    0 comentarios

    Ver todos los comentarios

    ¿Lograste tocar?

    0 Tocaron 0 Aún no

    ¡Graba un video tocando Olvidarte y envíanoslo!

    00:00 / 00:00
    Outros vídeos desta música
    Repetir Calidad Automático
    Outros vídeos desta música
    00:00 / 00:00
    Automático
    OK