Cifra Club

Quien Diría

Ricardo Arjona

Cifrado: Principal (guitarra y guitarra eléctrica)
Selo Cifra Club: esta cifra foi revisada para atender aos critérios oficiais da nossa Equipe de Qualidade.
tono: A
D|4|----5----------------------------
A|5|---5-----------------------------
E|6|--3------------------------------

e|1|-------3-5-7--5-----10--5-5-7--3---------|
b|2|-------3------7-7---12--7-7-7--3---------|
g|3|-----4--------7--7-------------4---------|
D|4|----5-----------------------------5------|
A|5|---5---------------------------------5---|
E|6|--3-------------------------------------3|
                                           |*|

|*| Inicio de la canción

En cuanto al resto de la canción, creo que la mejor
colaboración de los acordes es la de Alex Rázuri Urtecho.
Saludos a mis amigos Jorge, Balú, Paola y Cosío.
00:00 / 00:00
Otros videos de esta canción
Repetir
Otros videos de esta canción
2.556 exhibiciones
    • ½ Tono
    • A
    • Bb
    • B
    • C
    • Db
    • D
    • Eb
    • E
    • F
    • F#
    • G
    • Ab
  • Agregar a la lista

Afinación de cifrado

Afinador online

    00:00 / 00:00
    OK