Cifra Club

Receta

Ricardo Arjona

Cifrado: Principal (guitarra y guitarra eléctrica)
tono: C
GUITARRA 1:
E|-----------------------|
B|-----------------------|
G|-5---5---5---5---------|
D|---3---3---3---3-------|
A|-5-----------5---------|
E|-----------------------|

GUITARRA 2:
E|--3-3/5---3-3/5------3/5-6-8-6-8|
B|-6-----6-6------6---6-----------|
G|------------------3-------------|
D|--------------------------------|
A|--------------------------------|
E|--------------------------------|
ESTO ES SUPER RAPIC 
E|-------------------10/12/13-15/17/18/17-|
B|----------10/11/12----------------------|
G|-10/12/14-------------------------------|
D|----------------------------------------|
A|----------------------------------------|
E|----------------------------------------|
00:00 / 00:00
Otros videos de esta canción
Repetir
Otros videos de esta canción
Composición de Ricardo Arjona
16 exhibiciones
    • ½ Tono
    • A
    • Bb
    • B
    • C
    • Db
    • D
    • Eb
    • E
    • F
    • F#
    • G
    • Ab
  • Agregar a la lista
    00:00 / 00:00
    OK