Cifra Club

Tiempo en una Botella

Ricardo Arjona

Cifrado: Principal (guitarra y guitarra eléctrica)
Selo Cifra Club: esta cifra foi revisada para atender aos critérios oficiais da nossa Equipe de Qualidade.
tono: Dm
INTRO

E|-----10--10---9--9----8--8--7-7-6-6-6--------5-7-9-12-10-9-|
B|---10--10---10-10---10-10--8-8---5-6-8/6-6-5---------------|
G|---------------------------------------------6-7-9-12-10-9-|
D|-----------------------------------------------------------|
A|-----------------------------------------------------------|
E|-10--------9-------8------7--------------------------------|

VERSOS SE D PITE C S VECES
E|------------------------------------------------------------------|
B|-10-------10-------10------10-------10---10---10----8-----8-------|
G|-------10------10-------10------10----------------------7---7-----|
D|-----0-------0--------0-------0--------0----0----0----0-------0---|
A|------------------------------------------------------------------|
E|-10----------------9----------------8---------------7-------------|

E|--------------------------5-7-9-12-10-9-|
B|-8---5---6----8---6---5-----------------|
G|--------------------------6-7-9-12-10-9-|
D|---0---0---0----0---0---0---------------|
A|----------------------------------------|
E|-6---6---6----6---5---3-----------------|

E|------------------------------------------------------------------|
B|-10-------10-------10------10-------10---10---10----8-----8-------|
G|-------10------10-------10------10----------------------7---7-----|
D|-----0-------0--------0-------0--------0----0----0----0-------0---|
A|------------------------------------------------------------------|
E|-10----------------9----------------8---------------7-------------|

E|-3-----3------------1------3-----3---------------------------------|
B|---3-----3--------3---3-----------------2---3---5----2h3p2-0-------|
G|-----3-----3----2-------0----3-----3--------3-----0------------2---|
D|--------------0---------------------------2---5---7----------0---0-|
A|----------------------------------------0---0---0----0-------------|
E|-3-------------------------3---------------------------------------|

CORO

Y ES QUE ESTOY AQUI BUSCANC  EN EL AYER

LO QUE NO ENCUENTRO HOY
E|---------|
B|-2--3--5-|
G|---------|
D|---------|
A|-0--2--4-|
E|---------|

EL TIEMPO EN UNA BOTELA 

PARA ACUDIR A ELA  CUANC  QUIERA
E|----------------------------------------------------------------------|
PUEDE QUE TENGA MUCHIBM OS ERROD S
Otros videos de esta canción
    226 exhibiciones
      • ½ Tono
      • Am
      • Bbm
      • Bm
      • Cm
      • C#m
      • Dm
      • Ebm
      • Em
      • Fm
      • F#m
      • Gm
      • G#m
    • Agregar a la lista

    Afinação da cifra

    Afinador online

      Ops (: Contenido disponible solo en portugués.
      OK