Cifra Club

Aqui na Terra

Arkaya

Cifrado: Principal (guitarra y guitarra eléctrica)
tono: D
(intro) Bm   F#m

  Bm                                             F#m
Analisando a possibilidade de um além do horizonte existir
                  Bm
Onde não haja falsidade
                                      F#m
E onde aqueles homens não possam nos agredir

       G              A
Onde a pobreza acabará
       G    A
A violência acabará
     G      A
Todo mau se afastará
         Bm                F#m
E toda humanidade a paz entenderá

      Bm
Por que sonhar com o céu
                                 F#m
Se foi na terra que Deus colocou Adão e Eva
                 Bm
Onde haverá um paraíso
                                   F#m
Onde esse sistema será coisa do passado

       G              A
Onde a pobreza acabará
       G    A
A violência acabará
     G      A
Todo mau se afastará
           Bm                F#m
E toda humanidade a paz irá cantar...
com Arkaya

(guitarra 2)

(intro)
                                         1ºfim   2ºfim
E|-------------------------------------|-------|---------|
B|-3-2-3-2-3-2-3-----2-3-2-3-3/5-2-----|-------|---------|
G|---------------------------------4-2-|---2---|-4/15-15-|
D|-------------------------------------|-4-----|---------|
A|-------------------------------------|-------|---------|
E|-------------------------------------|-------|---------|

(riff 1) 
E|----------------------------------------|
B|---3-2--------5/7-5-3-2-3-3/5-3-2-------|
G|-4-----4-6-4----------------------2-2h4-|
D|----------------------------------------|
A|----------------------------------------|
E|----------------------------------------|

(refrão)
E|-----------------|
B|-----------------|
G|---2-2h4-4-4-4-2-| (3x)
D|-4---------------|
A|-----------------|
E|-----------------|

E|-----------------|
B|-5/7-5-3-3/5-3-2-|
G|-----------------|
D|-----------------|
A|-----------------|
E|-----------------|

(solo)
E|-------------------------7-5-3-5-5/7-5-3-5/7-7b-5-7-10-12b(13)(13)(13)-|
B|--------3-2------3-5b(6)-----------------------------------------------|
G|---2-4------4--4-------------------------------------------------------|
D|-4---------------------------------------------------------------------|
A|-----------------------------------------------------------------------|
E|-----------------------------------------------------------------------|

E|-14-12-10-9-9h10-9-9---14-12-10-9-9h10-9-7---14-12-10-9-9h10---/14-12-10-10/12-10-9-6-6h7-|
B|------------------------------------------------------------------------------------------|
G|------------------------------------------------------------------------------------------|
D|------------------------------------------------------------------------------------------|
A|------------------------------------------------------------------------------------------|
E|------------------------------------------------------------------------------------------|
00:00 / 00:00
Otros videos de esta canción
Repetir
Otros videos de esta canción
Composición de Fino
Colaboración y revisión:
  • Oscar Silva
31 exhibiciones
    • ½ Tono
    • A
    • Bb
    • B
    • C
    • Db
    • D
    • Eb
    • E
    • F
    • F#
    • G
    • Ab
  • Agregar a la lista
    00:00 / 00:00
    OK