Cifra Club

Folha de Bananeira

Armandinho

Cifrado: Principal (guitarra y guitarra eléctrica)
tono: F
 F                             Gm
Fuma, fuma, fuma folha de bananeira
         C                F
Fuma na boa, só de brincadeira

[Solo]

E|---------------------------------------|
B|--8/10-8-6-6/8-8----8/10-8-6-----------|
G|-----------------7-----------7-5-------|
D|---------------------------------------|
A|---------------------------------------|
E|---------------------------------------|

E|---------------------------------------|
B|-8/10-8-6-6/8-8-6-8/10-8-6-8-6---------|
G|---------------------------------------|
D|---------------------------------------|
A|---------------------------------------|
E|---------------------------------------|

 F                             Gm
Fuma, fuma, fuma folha de bananeira
         C                   F
Fuma na boa, só de brincadeira

      Bb                       F
Seu guarda cê não pode me prendê
         C                    F
É só um fino que eu acabo de cumê
           Bb                  F
Se chegou tarde o que posso fazer
        C                      F
Sou de menor e cê não pode me batê

 F                             Gm
Fuma, fuma, fuma folha de bananeira
         C                F
Fuma na boa, só de brincadeira

     Bb                        F
Seu guarda não cheire a minha mão
          C                     F
Sou seu amigo agora preste atenção
           Bb            F
A folha é boa, é erva fina
         C                      F
Fumo na boa só pra pega as menina

 F                             Gm
Fuma, fuma, fuma folha de bananeira
         C                F
Fuma na boa, só de brincadeira

Bb          F  C           F
Ohhh cabróbró, ohhh cabróbró
Bb          F  C           F
Ohhh cabróbró, ohhh cabróbró

         Bb             F
Seu guarda, não sou ladrão
          C                F
Passei de ano sem recuperação
         Bb                            F
Enquanto isso eu vou descendo a minha lomba
             C                        F
Andando de skate, estourando a minha bomba

 F                             Gm
Fuma, fuma, fuma folha de bananeira
         C                F
Fuma na boa, só de brincadeira

[Solo]

E|-----------------------------------------------------|
B|-----------------------------------------------------|
G|---1/2--0------------------2--0----------------------|
D|-----------3---5---3/5--0--------3-------------------|
A|------------------------------------5--3-------------|
E|-----------------------------------------------------|

E|-----------------------------------------------------|
B|-----------------------------------------------------|
G|---1/2--0------------------2--0----------------------|
D|-----------3---5---3/5--0--------3--5--3-------------|
A|-----------------------------------------------------|
E|-----------------------------------------------------|

      Bb                       F
Seu guarda não cheire a minha mão
          C                     F
Sou seu amigo agora preste atenção
           Bb            F
A folha é boa, é erva fina
         C                      F
Fumo na boa só pra pega as menina

 F                             Gm
Fuma, fuma, fuma folha de bananeira
         C                F
Fuma na boa, só de brincadeira
00:00 / 00:00
Otros videos de esta canción
Repetir
Otros videos de esta canción
Composición de Armandinho
6.187 exhibiciones
  • Simplificar cifrado
    • ½ Tono
    • A
    • Bb
    • B
    • C
    • Db
    • D
    • Eb
    • E
    • F
    • F#
    • G
    • Ab
  • Agregar a la lista
    00:00 / 00:00
    OK