Cifra Club

Lua Cheia

Armandinho

Tablatura: Principal (guitarra)
Tono: D
[Intro]  A  Bm  D  A



E|-------------------------------------------|     
B|-14h15--14--15--15/17--15--14---------15---|     
G|-14h16--14--16--16/18--16--14--------------|  
D|-------------------------------14/16-------|  
A|-------------------------------------------|     
E|-------------------------------------------|     

E|-------------------------------------------|     
B|-14h15--14--15--15/17--15--14h15--14-------|  
G|-14h16--14--16--16/18--16--14h16--14-------|  
D|-------------------------------------------|     
A|-------------------------------------------|     
E|-------------------------------------------| 

 A
Lua cheia
           Bm
Desliga o farol
        D
Namora comigo
          A
A espera do sol

 A
Tira a roupa
            Bm
Prum banho de mar
           D
É pele na pele
          A
Desejo no olhar

A
Água faz
 Bm                              D
Pensar mil fantasias pra fazer amor
      A
Só eu e você
 A
Lua faz
Bm                              D
O nosso sentimento libertar o amor
      A
Se enlouquecer

 A                Bm
Deixa a doideira bater
  D        Dm     A
Pra nunca mais me esquecer
 A                Bm
Deixa a maré nos levar
 D          Dm          A
Lalalalaia lalalalaia laia

 A
Lua cheia
           Bm
Desliga o farol
        D
Namora comigo
          A
A espera do sol

 A
Tira a roupa
            Bm
Prum banho de mar
           D
É pele na pele
          A
Desejo no olhar

A
Água faz
 Bm                              D
Pensar mil fantasias pra fazer amor
      A
Só eu e você
 A
Lua faz
Bm                              D
O nosso sentimento libertar o amor
      A
Se enlouquecer

 A                Bm
Deixa a doideira bater
  D        Dm     A
Pra nunca mais me esquecer
 A                Bm
Deixa a maré nos levar
 D          Dm         A
Lalalalaia lalalalaia laia

A
Água faz
 Bm                              D
Pensar mil fantasias pra fazer amor
      A
Só eu e você
 A
Lua faz
Bm                              D
O nosso sentimento libertar o amor
      A
Se enlouquecer

 A                Bm
Deixa a doideira bater
  D        Dm     A
Pra nunca mais me esquecer
 A                Bm
Deixa a maré nos levar
 D          Dm          A
Lalalalaia lalalalaia laia

 A                     Bm
Lalalalaia lalalalaia lalalalaia lalalalaia
 D          Dm           A
Lalalalaia lalalalaia laia
reproducciones 3.469
Acordes para:

    0 comentarios

    mostrar más comentarios

    ¿Conseguiste tocar?

    61 tocaron 2 aún no

    ¡Graba un vídeo tocando Lua Cheia y envianoslo!

    00:00 / 00:00
    outros vídeos desta música
    repetir qualidade Automático
    Outros vídeos desta música
    00:00 / 00:00
    Automático
    OK