Cifra Club

I Am Cow

The Arrogant Worms

Cifrado: Principal (guitarra y guitarra eléctrica)
Selo Cifra Club: esta cifra foi revisada para atender aos critérios oficiais da nossa Equipe de Qualidade.
tono: A
    I am cow,hear me moo, I weigh twice as much as you
E|-------------4--5---------5--4--2--4--5--2-----------|
B|---2--3--5--------5--------------------------5-------|
G|-----------------------------------------------------|
D|-----------------------------------------------------|
A|-----------------------------------------------------|
E|-----------------------------------------------------|

  and  Ilook good, on the barbeque
E|---5--7--9--9--9--7--5--9--7--4-----------------|
B|------------------------------------------------|
G|------------------------------------------------|
D|------------------------------------------------|
A|------------------------------------------------|
E|------------------------------------------------|

 Yogurt, curd, cream cheese, and butter’s made from liquid from my udders 
E|---5--7--9-9-9-9-9-7--5--4--2--4--5--2-----------------|
B|-----------------------------------------------5--5----|
G|-------------------------------------------------------|
D|-------------------------------------------------------|
A|-------------------------------------------------------|
E|-------------------------------------------------------|

    I am Cow, I am Cow,hear me mooooo  oooooo
E|---5--4--2---5--4--2---10--9--7---------5--------------|
B|-------------------------------------------------------|
G|-------------------------------------------------------|
D|-------------------------------------------------------|
A|-------------------------------------------------------|
E|-------------------------------------------------------|
Otros videos de esta canción
    2 exhibiciones
      • ½ Tono
      • A
      • Bb
      • B
      • C
      • Db
      • D
      • Eb
      • E
      • F
      • F#
      • G
      • Ab
    • Agregar a la lista

    Afinação da cifra

    Afinador online

      Ops (: Contenido disponible solo en portugués.
      OK