Cifra Club

Admissionregret

As Cities Burn

Cifrado: Principal (guitarra y guitarra eléctrica)
tono: C
Album: Son, I loved you at your darkest.

that kills by the way), id figure i post the one i tabbed.
I'm trying to get more tabs, so be on the look out. Im sure this is off, but hey, its 
work off of.


Note: I dont care if you post this at every tab site, just give me credit.

|-----------------------------------------------------------------------------------|
|--------8--8--8------8--------7--7--7----------------------------------------------|
|------7---------7----------7----------[5s7-7h9]------------------------------------|
|----5-------------5-----5----------------------------------------------------------|
|-----------------------------------------------------------------------------------|
|-----------------------------------------------------------------------------------|
[Both guitars with reverb and feedback]

|-------------------------------------------------------------------------------|
|---------8--8--8------8-----7--7--7--------------------------------------------|
|-------7---------8--------7--------------------------------------------------------|
|----5--------------5----5----------------------------------------------------------|
|-----------------------------------------------------------------------------------|
|-----------------------------------------------------------------------------------|

|-----------------------------------------------------------------------------------|
|---------8--8--8------8-----7--7--7----5---3---1---0-------------------------------|
|-------7---------8--------7--------------------------------------------------------|
|----5--------------5----5----------------------------------------------------------|
|-----------------------------------------------------------------------------------|
|-----------------------------------------------------------------------------------|

|-------------------------------------------------------------------------------|
|---------8--8--8------8-----7--7--7--------------------------------------------|
|-------7---------8--------7--------------------------------------------------------|
|----5--------------5----5----------------------------------------------------------|
|-----------------------------------------------------------------------------------|
|-----------------------------------------------------------------------------------|

|-----------------------------------------------------------------------------------|
|--------8--8--8-----8-----7--7--7------8--8--8-----8-----7--7--7-------------------|
|-----7----------8-------7------------7---------8-------7---------------------------|
|---5--------------5---5------------5-------------5---5-----------------------------|
|-----------------------------------------------------------------------------------|
|-----------------------------------------------------------------------------------|
At the very beggining of this go-around, Cody comes in with some tremelo picked riff
I cant figure out.

|---12--10------10--12--10-----------12--10------10--12--10-------------------------|
|-----------12-------------------------------12-------------------------------------|
|---------------------------12-------------------------------12---------------------|
|-----------------------------------------------------------------------------------|
|-----------------------------------------------------------------------------------|
|-----------------------------------------------------------------------------------|

|---12--10------10--12--10-----------12--10------10--12--10-------------------------|
|-----------12-------------------------------12-------------------------------------|
|---------------------------12-------------------------------12---------------------|
|-----------------------------------------------------------------------------------|
|-----------------------------------------------------------------------------------|
|-----------------------------------------------------------------------------------|

|---12--10------10--12--10-----------12--10------10--12--10-------------------------|
|-----------12-------------------------------12-------------------------------------|
|---------------------------12-------------------------------12---------------------|
|-----------------------------------------------------------------------------------|
|-----------------------------------------------------------------------------------|
|-----------------------------------------------------------------------------------|

|---12--10------10--12--10----------------------------------------------------------|
|-----------12----------------------------------------------------------------------|
|---------------------------12------------------------------------------------------|
|-----------------------------------------------------------------------------------|
|-----------------------------------------------------------------------------------|
|-----------------------------------------------------------------------------------|

|-----------------------------------------------------------------------------------|
|-----------------------------------------------------------------------------------|
|-----------------------------------------------------------------------------------|
|---s10--10--s10--10--s10--10--s10--10----------------------------------------------|
|---s10--10--s10--10--s10--10--s10--10----------------------------------------------|
|---s10--10--s10--10--s10--10--s10--10----------------------------------------------|
You get the idea, its just that.


|-----------------------------------------------------------------------------------|
|-----------------------------------------------------------------------------------|
|-----------------------------------------------------------------------------------|
|----10--10--10--10--10s8--8--8--8-----10\/10--10\/10--10\/10-----------------------|
|----10--10--10--10--10s8--8--8--8-----10\/10--10\/10--10\/10-----------------------|
|----10--10--10--10--10s8--8--8--8-----10\/10--10\/10--10\/10-----------------------|
At this point its 1:08 in the song.

|--------10--12-----------10--12-----------10--12-----------10--12-----------10--12-|
|-10--12-----------10--12-----------10--12-----------10--12-----------10--12--------|
|-----------------------------------------------------------------------------------|
|-----------------------------------------------------------------------------------|
|-----------------------------------------------------------------------------------|
|-----------------------------------------------------------------------------------|

|---------10--12-----------10--12---------------------------------------------------|
|--10--12-----------10--12----------------------------------------------------------|
|-----------------------------------------------------------------------------------|
|-----------------------------------------------------------------------------------|
|-----------------------------------------------------------------------------------|
|-----------------------------------------------------------------------------------|

|-------------19--19--17--15----------------------17--15--13------------------------|
|-----------------------------17-------------10---------------15--------------------|
|--------------------------------------------12-------------------------------------|
|---0-------------------------------0--s10------------------------------------------|
|---0-------------------------------0--s10------------------------------------------|
|---0-------------------------------0--s10------------------------------------------|

|-------------19--19--17--15----------------------17--15--13------------------------|
|-----------------------------17-------------10---------------15--------------------|
|--------------------------------------------12-------------------------------------|
|---0-------------------------------0--s10------------------------------------------|
|---0-------------------------------0--s10------------------------------------------|
|---0-------------------------------0--s10------------------------------------------|

|-------------19--19--17--15----------------------17--15--13------------------------|
|-----------------------------17-------------10---------------15--------------------|
|--------------------------------------------12-------------------------------------|
|---0-------------------------------0--s10------------------------------------------|
|---0-------------------------------0--s10------------------------------------------|
|---0-------------------------------0--s10------------------------------------------|

|-------------19--19--17--15----------------------17--15--13------------------------|
|-----------------------------17-------------10---------------15--------------------|
|--------------------------------------------12-------------------------------------|
|---0-------------------------------0--s10------------------------------------------|
|---0-------------------------------0--s10------------------------------------------|
|---0-------------------------------0--s10------------------------------------------|

|-------------19--19--17--15----------------------17--15--13------------------------|
|-----------------------------17-------------10---------------15--------------------|
|--------------------------------------------12-------------------------------------|
|---0-------------------------------0--s10------------------------------------------|
|---0-------------------------------0--s10------------------------------------------|
|---0-------------------------------0--s10------------------------------------------|

|-------------19--19--17--15----------------------17--15--13------------------------|
|-----------------------------17-------------10---------------15--------------------|
|--------------------------------------------12-------------------------------------|
|---0-------------------------------0--s10------------------------------------------|
|---0-------------------------------0--s10------------------------------------------|
|---0-------------------------------0--s10------------------------------------------|

|-----------------------------------------------------------------------------------|
|-----------------------------------------------------------------------------------|
|-----------------------------------------------------------------------------------|
|---s10--10--s10--10--s10--10--s10--10----------------------------------------------|
|---s10--10--s10--10--s10--10--s10--10----------------------------------------------|
|---s10--10--s10--10--s10--10--s10--10----------------------------------------------|
That a couple of times.

|-----------------------------------------------------------------------------------|
|-----------------------------------------------------------------------------------|
|-----------------------------------------------------------------------------------|
|---s8--8--s8--8--s8--8--s8--8------------------------------------------------------|
|---s8--8--s8--8--s8--8--s8--8------------------------------------------------------|
|---s8--8--s8--8--s8--8--s8--8------------------------------------------------------|
That a couple of times.

|----------------------------------------------------------------------------------|
|----------------------------------------------------------------------------------|
|----------------------------------------------------------------------------------|
|---/8-----------------------------------------------------------------------------|
|---/8-----------------------------------------------------------------------------|
|---/8-----------------------------------------------------------------------------|
Thats it.
Compositor não encontrado.
9 vistas
    • ½ Tono
    • A
    • Bb
    • B
    • C
    • Db
    • D
    • Eb
    • E
    • F
    • F#
    • G
    • Ab
  • Agregar a la lista

    0 comentarios

    Ver todos los comentarios

    ¿Lograste tocar?

    0 Tocaron 0 Aún no

    ¡Graba un video tocando Admissionregret y envíanoslo!

    00:00 / 00:00
    Outros vídeos desta música
    Repetir Calidad Automático
    Outros vídeos desta música
    00:00 / 00:00
    Automático
    OK