Cifra Club

Contact Intro

As Cities Burn

Cifrado: Principal (guitarra y guitarra eléctrica)
tono: Bb (con acordes en la forma de G) Capotraste en 3ª casa
Tabbed by: Levi britt
Email: *

Tuning:DADGBe - Capo 3 fret 

e|---------------0---0-----------0---0----------0---0----------0---0---------|
B|---------------0---0-----------0---0----------0---0----------0---0---------|
G|---------------0---0-----------5---5----------0---0----------0---0---------|
D|-----------3h5-5---5-------3h5-5---5------3h5-5---5----------0---0---------|
A|--------3h5----3---3----3h5----0---0---3h5----3---3------3h5-0---0----3X's-|
D|------------------------------------------------------3h5----3---3---------|

e|-------------------3h5/7-5----5h7p5----------------------------------------|
B|----------------3h5------7-5h7-----7p5\3-----------------------------------|
G|---------------------------------------------------------------------------|
D|---------------------------------------------------------------------------|
A|-----000000----------------------------------------------------------------|
D|--3b-000000----------------------------------------------------------------|

sorry i dont have the rest up yet. i will finish soon.


| /  slide up
| \  slide down
| h  hammer-on
| p  pull-off
| ~  vibrato
| +  harmonic
| x  Mute note
===============================================================================
Compositor não encontrado.
10 vistas
    • ½ Tono
    • A
    • Bb
    • B
    • C
    • Db
    • D
    • Eb
    • E
    • F
    • F#
    • G
    • Ab
  • Agregar a la lista

    0 comentarios

    Ver todos los comentarios

    ¿Lograste tocar?

    0 Tocaron 0 Aún no

    ¡Graba un video tocando Contact Intro y envíanoslo!

    00:00 / 00:00
    Outros vídeos desta música
    Repetir Calidad Automático
    Outros vídeos desta música
    00:00 / 00:00
    Automático
    OK