Cifra Club

Mantén la conducción

Ases Falsos

Cifrado: Principal (guitarra y guitarra eléctrica)
tono: F#m
 A   Asus4    D  A  Asus4   D  A   Asus4
E|---------0----2----------0----2----------0---|
B|-2---3-----3--3--2---3-----3--3--2---3-----3-|
G|---2---2------2----2---2------2----2---2-----|
D|--------------0---------------0--------------|
A|-0---0---0-------0---0---0-------0---0---0---|
E|---------------------------------------------|

  D          C#m7       B7        A
E|-2-----2-----4-----4-----2-----2----------|
B|---3-----3-----5-----5-----0-----0---2----|
G|-----------2-----------4-----------2------|
D|-0---0------------------------------------|
A|-------------4---4-------2---2-------0----|
E|------------------------------------------|

 A    Asus4  D          C#m7      B7
E|---------0---2-----2-----4-----4-----2-----2-----|
B|-2---3-----3---3-----3-----5-----5-----0-----0---|
G|---2---2---------------2-----------4-----------2-|
D|-------------0---0-------------------------------|
A|-0---0---0---------------4---4-------2---2-------|
E|-------------------------------------------------|

  F#m        Bbdim7     Bm
E|-------2-----------0-----------2--------|
B|---2-----2-----2-----2-----3-----3------|
G|-----------2-----------0-----------4----|
D|----------------------------------------|
A|-------------1---1-------2---2----------|
E|-2---2----------------------------------|

  Esus4  E      Bm7    Bm6
E|-----------------5-----5-4-----4----|
B|-0-----0-0-----0---3-------3--------|
G|---2-------1---------4-------4------|
D|-----2-------2----------------------|
A|------------------------------------|
E|-0-------0--------------------------|

[Intro/Arpeggio]

A Asus4 D
A Asus4 D
A Asus4 D C#m7 B7 A
A Asus4 D C#m7 B7 F#m Bbdim7 Bm Esus4 E Bm7 Bm6
A Asus4 D C#m7 B7 A
A Asus4 D C#m7 B7 F#m Bbdim7 Bm Esus4 E Bm7 Bm6

[Verso/Rasgueo]

F#m              Bm                  F#m
Quiero ver acción, mantén la conducción

             Bm                      F#m
ver sangre correr, maneja que después

                    E                   F#m
habrá tiempo para hablar de la confrontación

                 C#7                F#m
Antes vamos a sondear la gruta personal

                E                F#m
El camino se tiñó de oro y me perdí

              C#7                    D
me costaba definir la fuente de la luz

                       F#m E F#m (x2)
¿es albor o atardecer?

F#m           Bm                 F#m
quiero ver acción, ya deja de querer

              Bm                   F#m
¿qué debo buscar?, amor por el deber

               E                  F#m
aliviana la carreta, bota el mineral

                    C#7                 F#m
donde vamos no hace falta de esa combustión

                  E                   F#m
hazte dueño del camino, de tu conducción

                   C#7                 D
busca el pase más largo arriba el mentón

                 F#m  E  F#m
acabas de nacer

[coro/rasgueo]

          D   C#m7 B7        A Asus4 A
te ves hermosa en esa expresión

         D    C#m7 B7     F#m    Bbdim7
de desconfianza y vacilación

              Bm            Esus4 E
piensas que estoy hundiéndome

[Instrumental/Rasgueo]

A Asus4 D C#m7 B7 A
A Asus4 D C#m7 B7 F#m Bbdim7 Bm Esus4 E

[Outro/Arpeggio]

A Asus4   D      C#m7   B7       A
voy en un túnel, sí, tienes razón

A Asus4    D      C#m7 B7   F#m  Bbdim7
hacia otro mundo, otro corazón
00:00 / 00:00
Otros videos de esta canción
Repetir
Otros videos de esta canción
Composición de Cristobal Briceño
3 vistas
    • ½ Tono
    • Am
    • Bbm
    • Bm
    • Cm
    • C#m
    • Dm
    • Ebm
    • Em
    • Fm
    • F#m
    • Gm
    • G#m
  • Agregar a la lista

    0 comentarios

    Ver todos los comentarios

    ¿Lograste tocar?

    0 Tocaron 0 Aún no

    ¡Graba un video tocando Mantén la conducción y envíanoslo!

    00:00 / 00:00
    OK