Cifra Club

Lose Control

Ash

Cifrado: Principal (guitarra y guitarra eléctrica)
tono: C
TABBED BY RUAIRI COLEMAN


Here's some tips for playin.

Effect pedal - Boss Turbo Distortion (DS-2)
Turn each setting on the pedal up full boot and connect a footswitch. 
This pedal has 2 setting's 1 & 2. 1 is a soft distortion, 2 is a full 
out blow distortion. Leave the pedal on 1 for the Intro & Verus then 
for the Chorus & Outro use the footswitch to change to settin 2 for 
heave distortion. Guitar 2 uses setting 2 though out the song.

Also Guitar 2 does more than just the intro but I havn't worked it out sorry. Enjoy :) Please Rate this Tab.

 Intro (Guitar 1 steadly struming) (0.00)
 e|-----------------------------------------------------------|
 B|-----------------------------------------------------------|
 G|-----------------------------------------------------------|
 D|-10-10-10-10-10-10-10-10-10-10-10-10-10-10-10-10-10-10-10--|
 A|-10-10-10-10-10-10-10-10-10-10-10-10-10-10-10-10-10-10-10--|
 E|-8--8--8--8--8--8--8--8--8--8--8--8--8--8--8--8--8--8--8---|

 Intro (Guitar 2 enters right went Tim roars) (0.05)
 e|---------------------------------------------------------------------|
 B|---------------------------------------------------------------------|
 G|---------------------------10~~~~----------------------------10~~~~--|
 D|-10-10-10-10-10-10-101010--10~~~~--10-10-10-10-10-10-101010--10~~~~--|
 A|-10-10-10-10-10-10-101010--8-~~~~--10-10-10-10-10-10-101010--8-~~~~--|
 E|-8--8--8--8--8--8--8-8-8-----------8--8--8--8--8--8--8-8-8-----------|
   (Tim Roars)

 Verus 1 (0.11)
 e|-----------------------------------------------------|
 B|-----------------------------------------------------|
 G|-----------------------------------------------------|
 D|-10-10-10-9-9-9-9-9-12-12-12-10-10-10-10-10----------|
 A|-10-10-10-9-9-9-9-9-12-12-12-10-10-10-10-10----------|
 E|-8--8--8--7-7-7-7-7-10-10-10-8--8--8--8--8-----------|
                                        (Play x2 then start lyrics)
         I'll be doing alright without you
         Just move along around you 
         I'll be doing alright without you
         Yeah doing alright right now

 Chorus (0.38)
 e|--------------------------------------------------------|
 B|--------------------------------------------------------|
 G|--------------------------------------------------------|
 D|-7-7-7-7\5-5-5-5/7-7-7-7-7-7-7-7\5-5-5-5-5-5-5-5/-------|
 A|-7-7-7-7\5-5-5-5/7-7-7-7-7-7-7-7\5-5-5-5-5-5-5-5/-------|
 E|-5-5-5-5\3-3-3-3/5-5-5-5-5-5-5-5\3-3-3-3-3-3-3-3/-------|
                           Lose Your Soul
                           Kill Your Goal
   (Then)
 e|----------------------------|
 B|----------------------------|
 G|----------------------------|
 D|--7-7-7-7\5-5-5-5/10-10-10--|
 A|--7-7-7-7\5-5-5-5/10-10-10--|
 E|--5-5-5-5\3-3-3-3/8--8--8---|
                Yeah-|-------|
                      {At this point jump 
                      straight back into
                      the verus}

 Verus 1 (0.55)
 e|-----------------------------------------------------|
 B|-----------------------------------------------------|
 G|-----------------------------------------------------|
 D|-10-10-10-9-9-9-9-9-12-12-12-10-10-10-10-10----------|
 A|-10-10-10-9-9-9-9-9-12-12-12-10-10-10-10-10----------|
 E|-8--8--8--7-7-7-7-7-10-10-10-8--8--8--8--8-----------|
                                        (Play x2 then start lyrics)
    I'll be doing alright without you
    Just move along around you 
    I'll be doing alright without you
    Yeah doing alright right now

 Chorus (1.14)
 e|--------------------------------------------------------|
 B|--------------------------------------------------------|
 G|--------------------------------------------------------|
 D|-7-7-7-7\5-5-5-5/7-7-7-7-7-7-7-7\5-5-5-5-5-5-5-5/-------|
 A|-7-7-7-7\5-5-5-5/7-7-7-7-7-7-7-7\5-5-5-5-5-5-5-5/-------|
 E|-5-5-5-5\3-3-3-3/5-5-5-5-5-5-5-5\3-3-3-3-3-3-3-3/-------|
                           Lose Your Soul
                           Kill Your Goal
  (Then)
 e|----------------------------|
 B|----------------------------|
 G|----------------------------|
 D|--7-7-7-7\5-5-5-5/10-10-10--|
 A|--7-7-7-7\5-5-5-5/10-10-10--|
 E|--5-5-5-5\3-3-3-3/8--8--8---|
                Yeah-|-------|
                      {At this point jump 
                      straight back into
                      the verus}

 Verus 2 (1.30)
 e|-----------------------------------------------------|
 B|-----------------------------------------------------|
 G|-----------------------------------------------------|
 D|-10-10-10-9-9-9-9-9-12-12-12-10-10-10-10-10----------|
 A|-10-10-10-9-9-9-9-9-12-12-12-10-10-10-10-10----------|
 E|-8--8--8--7-7-7-7-7-10-10-10-8--8--8--8--8-----------|
                                        (Play x2 then start lyrics)
                        Still      seventeen
                        Cut   in   my   seam
                        I   feel   seventeen
                        You know what I mean

 Chorus (1.50)
 e|--------------------------------------------------------|
 B|--------------------------------------------------------|
 G|--------------------------------------------------------|
 D|-7-7-7-7\5-5-5-5/7-7-7-7-7-7-7-7\5-5-5-5-5-5-5-5/-------|
 A|-7-7-7-7\5-5-5-5/7-7-7-7-7-7-7-7\5-5-5-5-5-5-5-5/-------|
 E|-5-5-5-5\3-3-3-3/5-5-5-5-5-5-5-5\3-3-3-3-3-3-3-3/-------|
                           Lose Your Soul
                           Kill Your Goal

 e|----------------------------|
 B|----------------------------|
 G|----------------------------|
 D|--7-7-7-7\5-5-5-5/10-10-10--|
 A|--7-7-7-7\5-5-5-5/10-10-10--|
 E|--5-5-5-5\3-3-3-3/8--8--8---|
                Woah

  Outro (Steadly struming) (2.06)
 e|---------------------------------------------------------------|
 B|---------------------------------------------------------------|
 G|---------------------------------------------------------------|
 D|-10-10-10-10-10-10-10-10-10-10-10-10-10-10-10-10-10-10-10-77x--|
 A|-10-10-10-10-10-10-10-10-10-10-10-10-10-10-10-10-10-10-10-77x--|
 E|-8--8--8--8--8--8--8--8--8--8--8--8--8--8--8--8--8--8--8--55x--|



(Verus 1)
I'll be doing alright without you
Just move along around you
(Verus)
I'll be doing alright without you
Yeah doing alright right now

(Chorus)
Lose your soul
Kill your goal
Yeah

(Verus 1)
I'll be doing alright without you
Just move along around you

(Verus 1)
I'll be doing alright without you
Yeah doing alright right now

(Chorus)
Lose your soul
Kill your goal
Yeah

(Verus 2)
Still seventeen
Cut in my seam
I feel seventeen
You know what I mean

(Chorus)
Lose your soul
Kill your goal
Woah
00:00 / 00:00
Otros videos de esta canción
Repetir
Otros videos de esta canción
Composición de Mark Hamilton / Tim Wheeler
24 exhibiciones
    • ½ Tono
    • A
    • Bb
    • B
    • C
    • Db
    • D
    • Eb
    • E
    • F
    • F#
    • G
    • Ab
  • Agregar a la lista
    00:00 / 00:00
    OK