Cifra Club

Walking Barefoot

Ash

Tab de bajo: Principal
hey, saw there was no bass tabs for this song and since its so amazing i thought id tab it for everyone.

bass comes in 0:37 with

G-------------------------|
D-----------4-4-4-4-4-4-4-|
A-2-2-4-4-4---------------|
E-------------------------|
then

G-----------------------------------------------------|
D-6-6-6-6-6-6-4-------------------------4-4-4-4-4-4-4-|
A---------------4--4-4-4-4-4-2-2-2-2-2-4--------------|
E-----------------------------------------------------|

verse

G---------------------------------------------|
D---------------------------------------------|
A-6-6-6-6-6-6-6-6-6-6-6-6-4-4-4-9-9-9-9-9-9-9-|   x2
E---------------------------------------------|

G---------------------------------------------|
D---------------------------------------------|
A-2-2-2-2-2-2-2-2-2-2-2-2-4-4-4-9-9-9-9-9-9-9-|   x2
E---------------------------------------------|

chorus

G---------------------------------------------------------------------|
D-------------------------------4-4-4-4-4-4-4-----6-6-6-6-6-6-6-6-6-6-|
A-4-4-4-4-4-4-4-4-4-4-2-2-2-2-4---------------------------------------|
E---------------------------------------------4-4---------------------|
                                                                         x2
----------------------------------------------|
--------------------------------6-6-6-6-6-6-6-|
-2-2-2-2-4-2-2-2-2-2-2--2-2-4-4---------------|

bridge

G----------------------------------------------------------------------------|
D----------------------------------------------------------------------------|
A1-1-1-1-1-1-1-1-1-1-----------------2-2-2-2-2-2-2-2-2-2-2-2-4---------------|
E--------------------2-2-2-4-2-2-2-2---------------------------2-2-2-2-2-2-2-|

---------------------------------------------------------------------------|
---------------------------------------------------------------------------|
1-1-1-1-1-1-1-1-1-1-----------------2-2-2-2-2-2-2-2-2-2-2-2-2-2-4-4-4-4-4--|
--------------------2-2-2-4-2-2-2-2----------------------------------------|

thats it just listen to the song for the structure and follow the tab it sounds ok to me.
00:00 / 00:00
Otros videos de esta canción
Repetir
Otros videos de esta canción
Composición de Ash / Tim Wheeler
16 exhibiciones
00:00 / 00:00
OK