Cifra Club

Right Here

Ashes Remain

Cifrado: Principal (guitarra y guitarra eléctrica)
tono: E
Dedilhado - Intro:

E|-----------------|-----------------|------------------------------|
B|-----------------|-----------------|------------------------------|
G|-----------------|-----------------|------------------------------|
D|-----------------|--------2h4---4--|--------9-----------9h7-------|
A|--4-4---4h7---7--|----2------------|----7-------7----7------7---7-|
E|------4-----4----|--2---2-----2----|--7---7---7----7-7-7------7---|

E|-----------------|-----------------|------------------------------|
B|-----------------|-----------------|------------------------------|
G|-----------------|-----------------|------------------------------|
D|-----------------|--------2h4---4--|--------9-----------9---------|
A|--4-4---4h7---7--|----2------------|----7-------7----7------------|
E|------4-----4----|--2---2-----2----|--7---7---7----7-7-7----------|


Verse:
C#m              B
I can see every tear you've cried
A
Like an ocean in your eyes
C#m                   B                  A
All the pain and the scars have left you cold
C#m                B
I can see all the fears you face
A
Through a storm that never goes away
C#m                    B                    A
Don?t believe all the lies that you?ve been told

               C#m  A      E                           B
I?ll be right here now to hold you when the sky falls down
       C#m A   E                         B
I will always be the one that took your place
          C#m   A            E    B
When the rain falls, I won?t let go
               C#m
I?ll be right here

C#m                  B
I will show you the way back home
A
Never leave you all alone
C#m           B               A
I will stay until the morning comes
C#m                   B
I?ll show you how to live again
A
And heal the brokenness within
C#m              B              A
Let me love you when you come undone

               C#m  A      E                           B
I?ll be right here now to hold you when the sky falls down
       C#m A   E                         B
I will always be the one that took your place
          C#m  A             E    B
When the rain falls, I won't let go
               C#m
I?ll be right here

Bridge:
               B        A     C#m
When day break seems so far away
              B       A     C#m
Reach for my hand
              B       A       C#m
When hope and peace begin to fade
              B       A
Still I will stay

       C#m  A      E                           B
Right here now to hold you when the sky falls down
       C#m A   E                         B
I will always be the one that took your place
          C#m  A             E    B
When the rain falls I won't let go
          C#m  A             E    B
When the rain falls I won't let go
               C#m   B   A
I?ll be right here

Dedilhado - Final:
E|-----------------|-----------------|------------------------------|
B|-----------------|-----------------|------------------------------|
G|-----------------|-----------------|------------------------------|
D|-----------------|--------2h4---4--|--------9-----------9---------|
A|--4-4---4h7---7--|----2------------|----7-------7----7------------|
E|------4-----4----|--2---2-----2----|--7---7---7----7-7-7----------|
Compositor no encontrado.
Colaboración y revisión:
  • Carlos Alexandr
  • Lucas Schmitt
1.645 vistas
    • ½ Tono
    • A
    • Bb
    • B
    • C
    • Db
    • D
    • Eb
    • E
    • F
    • F#
    • G
    • Ab
  • Agregar a la lista

    0 comentarios

    Ver todos los comentarios

    ¿Lograste tocar?

    6 Tocaron 0 Aún no

    ¡Graba un video tocando Right Here y envíanoslo!

    00:00 / 00:00
    Otros videos de esta canción
    Repetir Calidad Automático
    Otros videos de esta canción
    00:00 / 00:00
    Automático
    OK