Cifra Club

Angie

Aslan

Cifrado: Principal (guitarra y guitarra eléctrica)
Selo Cifra Club: esta cifra foi revisada para atender aos critérios oficiais da nossa Equipe de Qualidade.
tono: Am
B|-1-1-1-1-1-1-1-3-1--0-0-3-0--3-3-3-3-3--1\3/1-----------------------------------------|
G|-2-2-2-2-2-2-2-2-2--1-1-1-1--0-0-0-0-0--2\4/2-----------0-----------------------------|
D|-2-2-2-2-2-2-2-2-2--2-2-2-2--0-0-0-0-0--3\5/3-3-2-0---2---2---------------------------|
A|-0-0-0-0-0-0-0-0-0--2-2-2-2--2-2-2-2-2------------3-------3-2-0-----------------------|
E|-----------------------------3-3-3-3-3------------------------------------------------|

[Verse 1]
Am      E      G               F         3 2 0 etc
Angie, Angie, when will those clouds all disappear?
Am      E      G               F         3 2 0 etc
Angie, Angie, where will it lead us from here?
       G                           Dm           Am
With no loving in our souls and no money in our coats
 C        Asus          G
You can't say we're satisfied
Am      E      G               F    3 2 0 etc
Angie… Angie… you can’t say we never try

[Instrumental]
e|E-0-0-0-3-0-0-0-0-0--0-0-0-0--3-3-3-3-3-----------------------------------------------|
B|-1-1-1-1-1-1-1-3-1--0-0-3-0--3-3-3-3-3--1\3/1-----------------------------------------|
G|-2-2-2-2-2-2-2-2-2--1-1-1-1--0-0-0-0-0--2\4/2-----------0-----------------------------|
D|-2-2-2-2-2-2-2-2-2--2-2-2-2--0-0-0-0-0--3\5/3-3-2-0---2---2---------------------------|
A|-0-0-0-0-0-0-0-0-0--2-2-2-2--2-2-2-2-2------------3-------3-2-0-----------------------|
E|-----------------------------3-3-3-3-3------------------------------------------------|

 [Verse 2]
Am      E
Angie, you’re beautiful yeah,
G               F         3 2 0 etc
Remember all those nights we cried,
          G                    Dm             Am
All the dreams we held so close Seemed to all go up in smoke,
G        Asus           G
Let me whisper in your ear…
Am      E      G               F         3 2 0 etc
Angie… Angie… where will it lead us from here

[Verse 3]
 G                    Dm              Am
Oh Angie don’t you weep All your kisses they came sweet
 C        Dm             G
I hate the sadness in your eye
  Dm                      Am
Angie, I still love you baby
  D                            Am
Everywhere I look I see your eyes
  D                        Am
There ain’t a woman that comes close to you
C          Asus          G
So come on baby try to rise

Am      E      G               F         C
Angie… Angie… you can’t say you’re satisfied




 Chord Legend
      G     Dm    Am    C   Asus
e|E----3------1-----0----0-----0---------------------------------------|
B|----3------3-----1----1-----3---------------------------------------|
G|----0------2-----2----0-----2---------------------------------------|
D|----0------0-----2----2-----0---------------------------------------|
A|----2------x-----0----3-----x---------------------------------------|
E|----3------x-----x----x-----x---------------------------------------|
Otros videos de esta canción
    7 exhibiciones
      • ½ Tono
      • Am
      • Bbm
      • Bm
      • Cm
      • C#m
      • Dm
      • Ebm
      • Em
      • Fm
      • F#m
      • Gm
      • G#m
    • Agregar a la lista

    Afinación de cifrado

    Afinador online

      OK