Cifra Club

Balada Para Un Loco

Astor Piazzolla

Cifrado: Principal (guitarra y guitarra eléctrica)
tono: Am
    Am    Am/G  Fmaj7 Am/E                  Bb
E|----0-0---0-0---0-0---0-----0-----0----------------|
B|----1-1---1-1---1-1---1-----1-----1---------3---3--|
G|--2-----0-----------------------------------3---3--|
D|--------------3-----2---2-3---2-3---2-0-------3----|
A|----------------------------------------3-1--------|
E|---------------------------------------------------|

    Bb      Am          B7          E7
E|------------------------2-2---2-2-0-----------|
B|----3---3---1-1---1-1---0-0---0-0-3-----------|
G|----3---3---2-2---2-2-------2-----1------1----|
D|------3---------2-----1-----------2--2-4---2--|
A|--1-------0-----------------------2-----------|
E|----------------------------------0-----------|

    Am    Am/G  Fmaj7 Am/E                  Bb
E|----0-0---0-0---0-0---0-----0-----0----------------|
B|----1-1---1-1---1-1---1-----1-----1---------3---3--|
G|--2-----0-----------------------------------3---3--|
D|--------------3-----2---2-3---2-3---2-0-------3----|
A|----------------------------------------3-1--------|
E|---------------------------------------------------|

    Bb      Am          B7    E7     A
E|------------------------2-2---0-0--0--|
B|----3---3---1-1---1-1---0-0---0-0--2--|
G|----3---3---2-2---2-2---------1-1--2--|
D|------3---------2------------------2--|
A|--1-------0-----------2------------0--|
E|----------------------------0---------|

Recitado: (en "*" empieza el arpegio)

Las tardecitas de Buenos Aires tienen ese qué sé yo, ¿viste?
Salís de tu casa, por Arenales. Lo de siempre: en la calle y en vos...
Cuando de repente, de atrás de un árbol, me aparezco yo. (*)
Mezcla rara de penúltimo linyera
y de primer polizonte en el viaje a Venus:
Medio melón en la cabeza,
las rayas de la camisa pintadas en la piel,
dos medias suelas clavadas en los pies,
y una banderita de taxi libre levantada en cada mano.
¡Te reís!... Pero sólo vos me ves: porque los maniquíes me guiñan;
los semáforos me dan tres luces celestes
y las naranjas del frutero de la esquina me tiran azahares.
¡Vení!, que así, medio bailando y medio volando,
me saco el melón para saludarte, te regalo una banderita,
y te digo...

                    A                 E/G#
Ya sé que estoy piantao, piantao, piantao...
                 G      F#        Bm
No ves que va la luna rodando por Callao;
                     E                      A
que un corso de astronautas y niños, con un vals,
               B7         E             A
me baila alrededor... ¡Bailá! ¡Vení! ¡Volá!

                    A                 E/G#
Ya sé que estoy piantao, piantao, piantao...
                 G         F#           Bm
Yo miro a Buenos Aires del nido de un gorrión;
                  E                           A
y a vos te vi tan triste... ¡Vení! ¡Volá! ¡Sentí!...
             B7      E7         A
el loco berretín que tengo para vos:

Am
¡Loco! ¡Loco! ¡Loco!
                                   Bb
Cuando anochezca en tu porteña soledad,
                              Am
por la ribera de tu sábana vendré
                      B7                      E
con un poema y un trombón a desvelarte el corazón.

Am
¡Loco! ¡Loco! ¡Loco!
                              Bb
Como un acróbata demente saltaré,
                                      Am
sobre el abismo de tu escote hasta sentir
                     B7          E
que enloquecí tu corazón de libertad... ¡Ya vas a ver!


Am  Am/G  Fmaj7  Am/E  Bb  Am  B7  E7
Am  Am/G  Fmaj7  Am/E  Bb  Am  B7 E7  A

Recitado:
Salgamos a volar, querida mía; subite a mi ilusión super-sport,
y vamos a correr por las cornisas ¡con una golondrina en el motor!
De Vieytes nos aplauden: "¡Viva! ¡Viva!",
los locos que inventaron el Amor;
y un ángel y un soldado y una niña nos dan un valsecito bailador.
Nos sale a saludar la gente linda... Y loco, pero tuyo, ¡qué sé yo!:
provoco campanarios con la risa,
y al fin, te miro, y canto a media voz:

                 A                 E/G#
Quereme así, piantao, piantao, piantao...
                  G       F#               Bm
Trepate a esta ternura de locos que hay en mí,
                       E7            A
ponete esta peluca de alondras, ¡y volá!
              B7           E     A
¡Volá conmigo ya! ¡Vení, volá, vení!

                 C                 G
Quereme así, piantao, piantao, piantao...
            Bb        A            Dm
Abrite los amores que vamos a intentar
            G7                C
la mágica locura total de revivir...
   D7               G7              C
¡Vení, volá, vení! ¡Trai-lai-la-larará!

Am  Am/G  Fmaj7  Am/E  Bb  Am  B7  E7
Am  Am/G  Fmaj7  Am/E  Bb  Am  B7 E7  A
00:00 / 00:00
Otros videos de esta canción
Repetir
Otros videos de esta canción
Composición de Horacio Ferrer
168 exhibiciones
    • ½ Tono
    • Am
    • Bbm
    • Bm
    • Cm
    • C#m
    • Dm
    • Ebm
    • Em
    • Fm
    • F#m
    • Gm
    • G#m
  • Agregar a la lista
    00:00 / 00:00
    OK