Cifra Club

Invalid Litter Dept.

At The Drive-In

Chords: Principal (acoustic and electric guitars)
tone: C
Album: Relationship Of Command
Tabbed by: Jeremy *


Dropped-D Tuning
Not really necessary for gu2(Omar)

Intro

Use a delay pedal to create a delayed effect when not fretting things properly.
E.g. Lay your first finger across the fret board at fret 11 or another high fret
but do not fret the strings mute them as if you were doing natural harmonics.
You can then then mess round with your guitar to create different sounds.

On my Boss-DD5 Delay pedal I set it as follows:
Level = So that the delay volumn is the same as you original volumn
Feedback = about middle to 3/4
* = Middle
Option set to 3 which is 200ms-800ms.  This makes the * at middle to be 
around 500ms.


 Gu1
 Continue the above for 2 progressions of Gu2's riff below then play:

 Gu1 Clean Sound(Jim)
     e:----------------|----------------|----------------|---------|
     b:-------10-----8-|-------7----8---|-------5------3-|---------|
 Gu1 g:---7------7-----|--7-------7-----|---3------3-----|---------|
     d:-9---9------9---|----9-----------|-5---5------5---|---------|
     a:----------------|----------------|----------------|---------|
     D:----------------|----------------|----------------|---------|

 Gu2 Crunchy and Very Sustainy With the Delay effect above still on(Omar)
     e:----------------|----------------|----------------|---------|
     b:-------10-------|----------------|-------5--------|---------|
 Gu2 g:---7------------|----------------|---3------------|---------|
     d:-9---9----------|----------------|-5---5----------|---------|
     a:----------------|----------------|----------------|---------|
     D:----------------|----------------|----------------|---------|

Verses

 Gu1 Clean Sound(Jim)
     e:------------------------|------------------------|
     b:------------------------|------------------------|
 Gu1 g:------------------------|------------------------|
     d:--------7--------7------|--------7--------7--9-7-|
     a:---7h8h9----7h8h9---9-7-|---7h8h9----7h8h9-------|
     D:-0--------0-------------|-0--------0-------------|

 Gu2 Crunchy/Tinny(Omar) play all the notes really short(sticcato)
                                           or however you spell it
     e:------------------------|------------------------|
     b:--------T---------7-----|------------------------|
 Gu2 g:-7--------9---------9p7-|-7------7h9p7-------7---|
     d:------------------------|----------------9-------|
     a:------------------------|------------------------|
     D:------------------------|------------------------|

Gu1 in the gap bits in the verses plays with a slide and goes from
fret 11 to fret 16.  (Dancing on the corpses ashes) while gu2 continues with he same


 Gu1 Overdriven and crunchy(Jim)
     e:-------------------|--------------------|-----------------|-----------------|
     b:-------------------|--------------------|-----------------|-----------------|
 Gu1 g:-------------------|--------------------|-----------------|-----------------|
     d:-0-9-12-0-9-12-0-9-|-12-0-9-12-0-9-12-0-|-5-5-5-5-5-5-5-5-|-4-4-4-4-7-7-7-7-|
     a:-0-9-12-0-9-12-0-9-|-12-0-9-12-0-9-12-0-|-5-5-5-5-5-5-5-5-|-4-4-4-4-7-7-7-7-|
     D:-0-9-12-0-9-12-0-9-|-12-0-9-12-0-9-12-0-|-5-5-5-5-5-5-5-5-|-4-4-4-4-7-7-7-7-|

 Gu2 Put that delay effect back on
     e:---------------1515|1515151515-141414---|-----------------|-----------------|
     b:-------------------|------------------15|-1515151515151515|1515151515-------|
 Gu2 g:-99999977777777----|--------------------|-----------------|-----------------|
     d:-------------------|--------------------|-----------------|-----------------|
     a:-------------------|--------------------|-----------------|-----------------|
     D:-------------------|--------------------|-----------------|-----------------|



end on a B5 chord then the Cedric or Jim only Dancing on the corpses ashes



     e:-------------------|-------------------|--------------------|--------------------|
     b:-------------------|-------------------|--------------------|--------------------|
 Gu1 g:-------------------|-------------------|--------------------|--------------------|
     d:-999979--79-9-79-7-|-555545--45-5-45-4-|-2------------------|-5------------------|
     a:-999979--79-9-79-7-|-555545--45-5-45-4-|-2------------------|-5------------------|
     D:-999979--79-9-79-7-|-555545--45-5-45-4-|-2------------------|-5------------------|
                                                  I haven't put the rythem on for the above
                                                  last 2 chords.

 Gu2 Put that delay effect back on for the second 2 bars
     e:-------------------|-------------------|--------------------|--------------------|
     b:-------------------|-------------------|--------10--7-------|--------10--7----87-|
 Gu2 g:-Same as above-----|-------------------|----7----7----------|----7----7----7-7--7|
     d:-------------------|-------------------|-9----9---9---------|-9----9---9----9----|
     a:-------------------|-------------------|--------------------|--------------------|
     D:-------------------|-------------------|--------------------|--------------------|

 Gu2 Plays the below instead after the singing stops:

     e:------7b-------7b--|-----7b-------7b---|--------------------|--------------------|
     b:---10-7b----T--7b--|-----7b-------7b---|--------10--7-------|--------10--7----87-|
 Gu2 g:--7--------7-------|-------------------|----7----7----------|----7----7----7-7--7|
     d:-9--9-----9--9-----|-------------------|-9----9---9---------|-9----9---9----9----|
     a:-------------------|-5--------5--------|--------------------|--------------------|
     D:-------------------|-------------------|--------------------|--------------------|
     The 7s that are bent above should be bent up and back


end on a b5 Chord
00:00 / 00:00
Other videos of this song
Repeat
Other videos of this song
50 views
    • ½ Tone
    • A
    • Bb
    • B
    • C
    • Db
    • D
    • Eb
    • E
    • F
    • F#
    • G
    • Ab
  • Add to list

Afinação da cifra

Afinador online

    00:00 / 00:00
    OK