Cifra Club

Los Ejes De Mi Carreta

Atahualpa Yupanqui

Cifrado: Principal (guitarra y guitarra eléctrica)
tono: C#m
   Am           E7                   Am                  E7                Am 

E|-------0-1-0----------/-1-0--------/----/------0-1-0---------/1-0-------/----/|
B|---1-3-------3-5-3-0--/-----3-5-3--/-5--/--1-3-------3-5-3-0-/----3-5-3-/-5--/|
G|----------------------/------------/----/--------------------/----------/----/|
D|----------------------/------------/----/--------------------/----------/----/|
A|----------------------/------------/----/--------------------/----------/----/|
E|----------------------/------------/----/--------------------/----------/----/|


               B7       E7         Am                B7     E7             Am 

E|-------------------/-------------/----/------------------/--------------/----/|
B|---1-3-1-3-1-0-1-0-/-0-1---------/----/--1-3-1-3-1-0-1-0-/-0-1----------/----/|
G|-------------------/-----2-4-2-1-/-2--/------------------/-----2-4-2-1--/-2--/|
D|-------------------/-------------/----/------------------/--------------/----/|
A|-------------------/-------------/----/------------------/--------------/----/|
E|-------------------/-------------/----/------------------/--------------/----/|




   Am           E7                   Am                  E7                Am 

E|-------0-1-0----------/-1-0--------/----/------0-1-0---------/1-0-------/----/|
B|---1-3-------3-5-3-0--/-----3-5-3--/-5--/--1-3-------3-5-3-0-/----3-5-3-/-5--/|
G|----------------------/------------/----/--------------------/----------/----/|
D|----------------------/------------/----/--------------------/----------/----/|
A|----------------------/------------/----/--------------------/----------/----/|
E|----------------------/------------/----/--------------------/----------/----/|




               B7       E7         Am                B7     E7             Am 

E|-------------------/-------------/----/------------------/--------------/----/|
B|---1-3-1-3-1-0-1-0-/-0-1---------/----/--1-3-1-3-1-0-1-0-/-0-1----------/----/|
G|-------------------/-----2-4-2-1-/-2--/------------------/-----2-4-2-1--/-2--/|
D|-------------------/-------------/----/------------------/--------------/----/|
A|-------------------/-------------/----/------------------/--------------/----/|
E|-------------------/-------------/----/------------------/--------------/----/|


   Am     A -7   F7    E7              Am        E7           Am 

E|-------------------/--0--------------/----/------------------------/|
B|---------------1-0-/-----------------/----/------------------------/|
G|---2-2-2-2-2-2-----/----1---2-4-2-1--/-2--/------------------------/|
D|-------------------/-----------------/----/------------------------/|
A|-------------------/-----------------/----/------------------------/|
E|-------------------/-----------------/----/------------------------/|
00:00 / 00:00
Otros videos de esta canción
Repetir
Otros videos de esta canción
Composición de Atahualpa Yupanqui / Romildo Risso
74 vistas
    • ½ Tono
    • Am
    • Bbm
    • Bm
    • Cm
    • C#m
    • Dm
    • Ebm
    • Em
    • Fm
    • F#m
    • Gm
    • G#m
  • Agregar a la lista

    0 comentarios

    Ver todos los comentarios

    ¿Lograste tocar?

    0 Tocaron 1 Aún no

    ¡Graba un video tocando Los Ejes De Mi Carreta y envíanoslo!

    00:00 / 00:00
    OK