Cifra Club

El Dorado

Aterciopelados

Cifrado: Principal (guitarra y guitarra eléctrica)
Selo Cifra Club: esta cifra foi revisada para atender aos critérios oficiais da nossa Equipe de Qualidade.
tono: C#m
         InTRo:

E|---------------|
B|---------------|
SoL |--8--9~--6-----|
D|------------9--| [x 4 ]
A|-9-99---7-77---|
E|---------------|



Lo tengo muy bien guardao  mi  |---------------|
guardao por si las moscas  B   |---------------|
ya le han hecho el viajao  SoL |--8--9~--6-----|
y nunca lo han encontrao   Re  |------------9--|
A|-9-99---7-77---|
E|---------------|



E|-------------------------------------------|
B|-------------------------------------5~-7~-|
SoL |-8s9s8-11-9--8s9s8--8s9s8-11-9-8s9s8s------|
D|-------------------------------------------|
A|-------------------------------------------|
E|-------------------------------------------|
      lo cuidaré, lo cuidaré, lo cuidareeeeé


Lo tengo hasta asegurao            mi  |---------------|
en una de esas agencias            B   |---------------|
mas vale estar preparaos           SoL |--8--9~--6-----|
no va y sea el diablo que vuelva   Re  |------------9--|
A|-9-99---7-77---|
E|---------------|


E|-------------------------------------------|
B|-------------------------------------5~-7~-|
SoL |-8s9s8-11-9--8s9s8--8s9s8-11-9-8s9s8s------|
D|-------------------------------------------|
A|-------------------------------------------|
E|-------------------------------------------|
      lo cuidaré, lo cuidaré, lo cuidareeeeé



E|------------------|
B|-----10-9-7-------|
SoL |-8s9--------8-----|
D|------------------|
A|------------------|
E|------------------|



    C#m7
No es morado no
        B
No es rosado no
        C#m7
No es plateado no
         B
No es jaspeado no
B
Mira que aqui lo tengo
C#m7
Mira que aqui lo tengo
B
Mira que aqui lo tengo
C#m7
Mira que aqui lo tengo

E|------------------|
B|-----10-9-7-------|
SoL |-8s9--------8-----|  [ x2 ]
D|------------------|
A|------------------|
E|------------------|


   C#m7
Y violaron si
    B
Y robaron si
    C#m7
Y mataron si
       B
No lo hallaron no
B
Mira que aqui lo tengo
C#m7
Mira que aqui lo tengo
B
Mira que aqui lo tengo
C#m7
Mira que aqui lo tengo

E|------------------|
B|-----10-9-7-------|
SoL |-8s9--------8-----|  [ x2 ]
D|------------------|
A|------------------|
E|------------------|

    C#m7
No es morado no
        B
No es rosado no
        C#m7
No es plateado no
         B
No es jaspeado no
B
Mira que aqui lo tengo
C#m7
Mira que aqui lo tengo
B
Mira que aqui lo tengo
C#m7
Mira que aqui lo tengo

E|----------------------------------|
B|-----10-9-7----------10-9-7-------|
SoL |-8s9--------8---8s9--------88h9---|
Re  |----------------------------------|  FiN ^^
A|----------------------------------|
E|----------------------------------|
Otros videos de esta canción
    80 exhibiciones
      • ½ Tono
      • Am
      • Bbm
      • Bm
      • Cm
      • C#m
      • Dm
      • Ebm
      • Em
      • Fm
      • F#m
      • Gm
      • G#m
    • Agregar a la lista

    Afinação da cifra

    Afinador online

      Ops (: Contenido disponible solo en portugués.
      OK