Cifra Club

Mujer Gala

Aterciopelados

Cifrado: Principal (guitarra y guitarra eléctrica)
Selo Cifra Club: esta cifra foi revisada para atender aos critérios oficiais da nossa Equipe de Qualidade.
tono: G
versos 

mujer gala, eres... 

g----------------------------------- 
d----------------------------------- 
a--------4-4-4---------------------- 
e--4-4-4-------5-5-5-0-0-0---------- 

coro 

pero yo no lo veo, pero yo no me lo creo pero yo. 

g---------------------------------------------- 
d---------------------------------------------- 
a----------2-2-2-2---------2-2-2-2---------2--- 
e--2-2-2-2---------2-2-2-2---------2-2-2-2----- 

con esto lo podes sacar solo cogele el ritmo
Otros videos de esta canción
    325 exhibiciones
      • ½ Tono
      • A
      • Bb
      • B
      • C
      • Db
      • D
      • Eb
      • E
      • F
      • F#
      • G
      • Ab
    • Agregar a la lista

    Afinação da cifra

    Afinador online

      Ops (: Contenido disponible solo en portugués.
      OK