Cifra Club

Sortilegio

Aterciopelados

Cifrado: Principal (guitarra y guitarra eléctrica)
tono: Em
INTRO

E|-------------------------------------------------------------------|
B|-------------------------------------------------------------------|
G|----------0--------------0-----------------0--------------0--------|
D|------2-----2--------2-----2---2-------4-----4--------4-----4---5--|
A|----3---3-----3----3---3-----3-------5---5-----5----5---5-----5----|
E|--3-------------3------------------5-------------5-----------------|

E|-------------------------------------------------------------------|
B|--------------------------------------------------------3----------|
G|----------0--------------0-----------------0-----------------------|
D|------2-----2--------2-----2---2-------4-----4--------4------------|
A|----3---3-----3----3---3-----3-------5---5-----5----5--------------|
E|--3-------------3------------------5-------------5-----------------|

C Em11

Eres inmune a mis requiebros
repeles toda mi pasion
no le escuchas a mi corazon
te portas como una basura

y en el horoscopo me predicen
mal panorama sentimental
leo en la taza del chocolate
no dejaras de ser porqueria

  G D F A#

  Dispuesto a probar
  este filtro de amor
  para tenerte ya
  no dudo que hara efecto
  oh, oh, oh, oh, oh

  orines de sapo negro,
  una piedra de la calle
  no dudo que hara efecto
  oh, oh, oh, oh, oh

  Siete clavos, agua bendita
  lagrimas de selva virgen
  no dudo que hara efecto
  oh, oh, oh, oh, oh

  me amaras con este elixir
  te amarrare con este sortilegio
  no dudo que hara efecto
  oh, oh, oh, oh, oh

G D F B

G D F A# (CON DISTORCION)

  G D F A# (LIMPIA)

  Dispuesto a probar
  este filtro de amor
  para tenerte ya
  no dudo que hara efecto
  oh, oh, oh, oh, oh

  orines de sapo negro,
  una piedra de la calle
  no dudo que hara efecto
  oh, oh, oh, oh, oh

  Siete clavos, agua bendita
  lagrimas de selva virgen
  no dudo que hara efecto
  oh, oh, oh, oh, oh

  me amaras con este elixir
  te amarrare con este sortilegio
  no dudo que hara efecto
  oh, oh, oh, oh, oh

G D F A# (CON DISTORCION)


G  O

E|-------------------------------------------------|
B|--10--8-7--8-7-----------10--8-7--8-7--8--10-10--|
G|----------------10--9-9--------------------------|
D|-------------------------------------------------|
A|-------------------------------------------------|
E|-------------------------------------------------|
                                                          =BG UE SONANC 
E|--10--8--10--11-10--8--10--11-| 2 veces|-11--11--11--8-11=--|   A  NOTA
B|-----------------------------------------------------------|
G|-----------------------------------------------------------|
D|-----------------------------------------------------------|
A|-----------------------------------------------------------|
E|-----------------------------------------------------------|

G D F A# (CON DISTORCION)

Sortilegio |3 veces|

G D F A# (TERE NA CON ACUSTICA)




    C    Em11   G     D     F     A#    A
E|--0--|--0--|--3--|--5--|--1--|--6--|--5--|
B|--1--|--3--|--3--|--7--|--1--|--6--|--5--|
G|--0--|--0--|--4--|--7--|--2--|--7--|--6--|
D|--2--|--4--|--5--|--7--|--3--|--8--|--7--|
A|--3--|--5--|--5--|--5--|--3--|--8--|--7--|
E|--3--|--5--|--3--|-----|--1--|--6--|--5--|
00:00 / 00:00
Otros videos de esta canción
Repetir
Otros videos de esta canción
Composición de Aterciopelados
59 exhibiciones
    • ½ Tono
    • Am
    • Bbm
    • Bm
    • Cm
    • C#m
    • Dm
    • Ebm
    • Em
    • Fm
    • F#m
    • Gm
    • G#m
  • Agregar a la lista
    00:00 / 00:00
    OK