Cifra Club

Shake Those Windows

Athlete

Cifrado: Principal (guitarra y guitarra eléctrica)
tono: Bb

The best song on their debut "Vehicles & Animals"
Also my first tab. Added a guitar riff, don't know if its any good, 
sounds like it anyway
-------------------------------------------------------------------------------
Tabbed by:tom
Email:

Tuning: standard




              Lives in Edinburgh            Just across the road .....
e|-----------------------------(1)----(1)----(1)----(1)--------------|
B|-(1)---(1)---(1)---(1)--------3------3------3------3---------------|
G|--3-----3-----3-----3---------3------3------3------3---------------|
D|--3-----3-----3-----3-------1------1------1------1-----------------|
A|1-----1-----1-----1------------------------------------------------|
E|-------------------------------------------------------------------|

e|-------------------------------------------------------------------|
B|---6-----6-----6-----6--------4-----4-----4-----4------------------|
G|---5-----5-----5-----5--------3-----3-----3-----3------------------|
D|-------------------------------------------------------------------|
A|-5-----5-----5-----5--------3-----3-----3-----3--------------------|
E|-------------------------------------------------------------------|

  Just let the record play, and bring it back again
e|--------------------(1)--------------------------------------------|
B|----(1)-----(1)------3---------------------------------------------|
G|-----3-------3-------3---------------------------------------------|
D|-----3-------3-------1---------------------------------------------|
A|1--------1---------------------------------------------------------|
E|-------------------------------------------------------------------|


....
bridge  
e|-----------------13--13--------------------------------------------|
B|------11h13--13----------11--13-----------13--13------13-----------|
G|--------------------------------------------------14---------------|
D|-------------------------------------------------------------------|
A|-------------------------------------------------------------------|
E|-------------------------------------------------------------------|


....
riff
e|------5-6----------------6-5----------------8--10------------------|
B|----------6------6-----------6------6-------------6-------6--------|
G|---------------7---7--------------7---7-----------------7---7------|
D|-------------------------------------------------------------------|
A|-------------------------------------------------------------------|
E|-------------------------------------------------------------------|


....
to the end
e|-------------------------------------------------------------------|
B|---------------------3-3-3-3-3-3-3-3-------------------------------|
G|-5-5-5-5-5-5-5-5-----3-3-3-3-3-3-3-3------3-3-3-3-3-3-3-3----------|
 |-5-5-5-5-5-5-5-5-----1-1-1-1-1-1-1-1------3-3-3-3-3-3-3-3----------|
A|-3-3-3-3-3-3-3-3--------------------------1-1-1-1-1-1-1-1----------|
E|-------------------------------------------------------------------|
Composición de Athlete
27 vistas
    • ½ Tono
    • A
    • Bb
    • B
    • C
    • Db
    • D
    • Eb
    • E
    • F
    • F#
    • G
    • Ab
  • Agregar a la lista

    0 comentarios

    Ver todos los comentarios

    ¿Lograste tocar?

    0 Tocaron 0 Aún no

    ¡Graba un video tocando Shake Those Windows y envíanoslo!

    00:00 / 00:00
    Otros videos de esta canción
    Repetir Calidad Automático
    Otros videos de esta canción
    00:00 / 00:00
    Automático
    OK