Cifra Club

Laberinto

Atomica

Cifrado: Principal (guitarra y guitarra eléctrica)
tono: Ab
 C5 Db5 Ab5 
C5 Db5 Ab5 

    C5    Db5   Ab5    C5     Db5   Ab5 
e|---------------------------------------| 
B|-----8-9-9-8-9----------8-9-9-8-9--9~--| 
G|---------------8~------------------8~--| 
D|--10-----------------10----------------| 
A|---------------------------------------| 
E|---------------------------------------| 

Ab5                 Bb5 
Y alcanzar al fin el cambio no logró 
Db5                            Eb5 
sonidos de olas auguraban su destino. 
Ab5                 Bb5 
Aferrada en caminar donde no es 
Db5                            Eb5 
creer un poco tanbién es divertido. 

Ab5                 Bb5 
Otra tarde sola, dentro de su jaula, 
Db5                            Eb5 
la boca seca recuerda el reloj. 
Ab5                       Bb5 
Mas frases que la tientan, botellas que no suenan, 
Db5                    Eb5           C5      Eb5  C5 
eterno laberinto del que no puede escapaaarrr    aaaaaa 
     Db5               Eb5                Ab5 
Aferrada en ese hechizo paciente esperará 

C5       Db5      Ab5   C5        Db5     Ab5 
mucho habrá por perder dispuesta estará otra vez. 

     C5    Db5   Ab5    C5     Db5   Ab5 
e|---------------------------------------| 
B|-----8-9-9-8-9----------8-9-9-8-9--9~--| 
G|---------------8~------------------8~--| 
D|--10-----------------10----------------| 
A|---------------------------------------| 
E|---------------------------------------| 

Ab5                   Bb5 
Lluvia y noches no podía renunciar 
Db5                            Eb5 
se oyeron truenos y penas de lo mismo 
Ab5                     Bb5 
entercada en alcanzar lo que no hay 
Db5                            Eb5 
cerrar los ojos tanbién es divertido. 

Ab5                        Bb5 
Mas frases que la tientan botellas que no suenan 
Db5                   Eb5              C5      Eb5   C5 
eterno laberinto del que no puede escapaaarrr aaaa 
Db5               Eb5                Ab5 
Aferrada en ese hechizo paciente esperará 
C5       Db5      Ab5   C5        Db5     Ab5 
mucho habrá por perder dispuesta estará otra vez. 

 SOLO: 

   C5       Db5     Ab5  C5     Db5   Ab5 
e|-------------------------------------4~---| 
B|------------------------------------------| 
G|-6-5-----5-6-6-5-----5-6-6-5-----5-6------| 
D|-----5-6---------5-6---------5-6----------| 
A|------------------------------------------| 
E|------------------------------------------| 

e|------------------------------------------| 
B|------------------------------------------| 
G|------------------------------------------| 
D|-------------------------------6/5--------| 
A|------6-4/3-3~--3-4/6--3-4/6-6------------| 
E|-4~-4-------------------------------------| 

e|------------------------------------------| 
B|------------------------------------------| 
G|------------------------------------------| 
D|------------------------------------------| 
A|--6~-6-8-10-6~-6-8-10-6~--6-4-3-3/1-6~----| 
E|------------------------------------------| 

Eb5        C5   Eb5       C5 
a aaa a aa      a aaa a aa 

Db5               Eb5                Ab5 
Aferrada en ese hechizo no se puede escapar 
C5         Db5           Ab5 C5        Db5     Ab5 
No quiere hallar ya el final aunque lanzándose va 
C5                    Db5         Ab5 
pero al menos quema el cielo y ese fuego arde ya 
C5       Db5      Ab5 
son las olas, el cielo esta ahí, 
C5       Db5      Ab5 
es el fuego, la niebla... 
C5          Db5      Ab5 
laberinto esta ahí... 

     C5    Db5   Ab5    C5     Db5   Ab5 
e|---------------------------------------| 
B|-----8-9-9-8-9----------8-9-9-8-9--9~--| 
G|---------------8~------------------8~--| 
D|--10-----------------10----------------| 
A|---------------------------------------| 
E|---------------------------------------|  

Ab5
00:00 / 00:00
Otros videos de esta canción
Repetir
Otros videos de esta canción
Compositor no encontrado.
Colaboración y revisión:
  • Mauro Schaparini
17 vistas
    • ½ Tono
    • A
    • Bb
    • B
    • C
    • Db
    • D
    • Eb
    • E
    • F
    • F#
    • G
    • Ab
  • Agregar a la lista

    0 comentarios

    Ver todos los comentarios

    ¿Lograste tocar?

    0 Tocaron 0 Aún no

    ¡Graba un video tocando Laberinto y envíanoslo!

    00:00 / 00:00
    OK