Cifra Club

Chance

Attaque 77

Cifrado: Principal (guitarra y guitarra eléctrica)
tono: E
Intro

E|-12--12--12--12------9--12--11------9--11-----------------------|
B|-----------------10---------------------------------------------|
G|----------------------------------------------------------------|
D|----------------------------------------------------------------|
A|----------------------------------------------------------------|
E|----------------------------------------------------------------|

G  O:

E|---------------------------------------------------------------------|
B|------------------------------------7---7----------------------------|
G|-9-11-11b13-9~~-7--7-9-9b11-7~~--/6---6---6--9-9-9h11----------------|
D|------------------------------------------------------11~~--9--7--9~~|
A|---------------------------------------------------------------------|
E|---------------------------------------------------------------------|

E|----------------------------------------------------------------|
B|------------------------------------7---7---7-------------------|
G|-9-11-11b13-9~~-7--7-9-9b11-7~~--/6---6---6----14-14-16/18-14~~~|
D|----------------------------------------------------------------|
A|----------------------------------------------------------------|
E|----------------------------------------------------------------|

E|------------------------------|
B|------------------------------|
G|--14h16p14--------------------|
D|-------------14---------------|
A|------------------------------|
E|------------------------------|
Composición de Attaque 77
68 vistas
    • ½ Tono
    • A
    • Bb
    • B
    • C
    • Db
    • D
    • Eb
    • E
    • F
    • F#
    • G
    • Ab
  • Agregar a la lista

    0 comentarios

    Ver todos los comentarios
    00:00 / 00:00
    Otros videos de esta canción
    Repetir Calidad Automático
    Otros videos de esta canción
    00:00 / 00:00
    Automático
    OK