Cifra Club

Los buenos deseos

Attaque 77

Chords: Principal (acoustic and electric guitars)
tone: F#m

solo
E|-------------------------------------------|
B|-------------------------------------------|
G|-------------------------------------------|
D|-----7---7h9-7-------7---7h9-7-------------|
A|-5-9---9---------5-9---9------9-9-9h10-9-5-|
E|-------------------------------------------|

E|---------------------------------------|
B|---------------------------------------|
G|---------------------------------6-6-7-|
D|-----7---7h9-7-------7---7h9-7-9-------|
A|-5-9---9---------5-9---9---------------|
E|---------------------------------------|

E|-----------------------------------------|
B|-----------------------------------------|
G|-7-9-7-9-9^(11)--12-11-9--14-12-11h12-11-|
D|-----------------------------------------|
A|-----------------------------------------|
E|-----------------------------------------|

E|-------10--10-10-10-9-9-10---|
B|-10h12--------------------9--|
G|-----------------------------|
D|-----------------------------|
A|-----------------------------|
E|-----------------------------|

E|---------------------------------------------------10-|
B|------------------------10--12^(13)-12^(13)-12^(13)---|
G|-10^(11)-10^(11)-10^(11)------------------------------|
D|------------------------------------------------------|
A|------------------------------------------------------|
E|------------------------------------------------------|
00:00 / 00:00
Other videos of this song
Repeat
Other videos of this song
12 views
    • ½ Tone
    • Am
    • Bbm
    • Bm
    • Cm
    • C#m
    • Dm
    • Ebm
    • Em
    • Fm
    • F#m
    • Gm
    • G#m
  • Add to list

Afinação da cifra

Afinador online

    00:00 / 00:00
    OK