Cifra Club

Neo-satan

Attaque 77

Cifrado: Principal (guitarra y guitarra eléctrica)
tono: Dm
Intro: Dm  - Am  - G   - C 
       Dm  - Am  - G   - (C  C# )

Dm             Am            G  
  Recuerdas al hombre de los cuernos?
Dm            Am                 G       (C  C# )
  Aquel viejo rojo, el Rey del Infierno?
Dm          Am                  G  
  Si eres capaz de guardar un secreto
                  A7 
No lo vas a acribillar…

Dm               Am                G  
  Lo he visto en horas que en el espejo... Ya no me reflejo
Dm          Am                  G        (C          C# )
  Echando puteadas a los cuatro vientos.. Que indignación! Dijo...
Dm          Am              G  
  Cómo es posible que yo el Diablo?
C        G       F 
  Si… el Diablo!

            Dm               Am 
Me han despojado de mi autoridad
         Dm                  Am 
Fui desterrado así por un mortal
             G                C 
Hoy ni a los niños podría asustar
         G              (C       C# ) Intro
Y soy el hazme reír en este puto carnaval


Yo te puedo enseñar mis peores secretos del mal
A mentir y robar y que el pueblo te vuelva a votar
Y a matar a tu propio hijo si es necesario
Pobre diablo!


No sabe con quién se fue a involucrar
Gente implacable el arte del mal
Ningún político es de fiar
Y hay ciertas cosas que no hay de prestar

Ya la comparsa se empieza a alejar
Y el pobre diablo bailando detrás
Tan decadente se pone a llorar
Pensando que si tridente lo tiene Neo-Satán

Intro/Riff

Lo tiene Neo-Satán!!!
Y rige Neo-Satán.


  Riff
E|-------------------|----------------------------|
B|-------------------|----------------------------|
G|-7~~-7-9-10-9~~-/5-|------------------5---------|
D|----7--------------|-6/7-6/7-5p3h5--/7-7-5~-----|
A|-------------------|------------------------8-5-|
E|-------------------|----------------------------|

E|----------------|------------------------------|
B|----------------|------------------------------|
G|-7~~-7-9-10-9~~-|-/12-10-12-/14-12/10h12~~-5*--|
D|----7-----------|------------------------------|
A|----------------|------------------------------|
E|----------------|-------| ----------------------|
                                             17*
00:00 / 00:00
Otros videos de esta canción
Repetir
Otros videos de esta canción
Compositor no encontrado.
4 vistas
    • ½ Tono
    • Am
    • Bbm
    • Bm
    • Cm
    • C#m
    • Dm
    • Ebm
    • Em
    • Fm
    • F#m
    • Gm
    • G#m
  • Agregar a la lista

    0 comentarios

    Ver todos los comentarios
    00:00 / 00:00
    OK