Cifra Club

Black Hole Sun

Audioslave

Cifrado: Principal (guitarra y guitarra eléctrica)
Selo Cifra Club: esta cifra foi revisada para atender aos critérios oficiais da nossa Equipe de Qualidade.
tono: G
Intro:

E|------------------------------------------------|
B|------------------------------------------------|
G|-------5--------------5--------5--------------4-|
D|-----5----5---------5--------3----3---------2---|
A|---5--------5-----5--------3--------3-----2-----|
D|-5------------5-8--------3------------3-2-------|

E|------------------------------|
B|------------------------------|
G|------------1--------------2--|
D|-2--------1----1---------0----|
A|--------1--------1-----3------|
D|----0-1------------1-0--------|

Verso:
E|----------------------------------------------|
B|----------------------------------------------|
G|-------5--------------5--------------5--------|
D|-----5----5---------5----5---------3----3-----|
A|---5--------5-----5--------5-----3--------3---|
D|-5------------5-8------------8-3------------3-|

E|----------------------------------------------|
B|----------------------------------------------|
G|-------4--------------1--------------2--------|
D|-----2----2---------1----1---------0----0-----|
A|---2--------2-----1--------1-----3--------3---|
D|-2------------0-1------------1-0------------0-|

E|--------------------------|
B|--------------------------|
G|--------------------------|
D|-----5-------5---------6--|
A|---5---5---5---5-----6----|
D|-5-------3-------3/6------|

In my eyes
Indisposed
In disguise as no one knows
Hides the face, Lies the Snake
The sun in my desgrace

E|----------------------------------------------|
B|----------------------------------------------|
G|-------5--------------5--------------5--------|
D|-----5----5---------5----5---------3----3-----|
A|---5--------5-----5--------5-----3--------3---|
D|-5------------5-8------------8-3------------3-|

E|----------------------------------------------|
B|----------------------------------------------|
G|-------4--------------1--------------2--------|
D|-----2----2---------1----1---------0----0-----|
A|---2--------2-----1--------1-----3--------3---|
D|-2------------0-1------------1-0------------0-|

E|--------------------------|
B|--------------------------|
G|--------------------------|
D|-----5-------5---------6--|
A|---5---5---5---5-----6----|
D|-5-------3-------3/6------|

Boiling heat
Summer stanch
'Neath the black the sky looks dead
Call my name through the cream
And I'll hear you scream again

Refrão:
E|-----------------------------------------------|
B|-----------------------------------------------|
G|-------1--------------2------------------------|
D|-----1----1---------0----0---------5-------5---|
A|---1--------1-----3--------3-----5---5---5---5-|
D|-1------------1-0------------0-5-------3-------|

E|--------------------------------------------|
B|--------------------------------------------|
G|-------7------------1--------------2--------|
D|-----8----8-------1----1---------0----0-----|
A|---8--------8---1--------1-----3--------3---|
D|-8------------0------------1-0------------0-|

E|--------------2---|
B|-1--1-1-1-1-1-3---|
G|-0--0-0-0-0-0-2---|
D|-2--2-2-2-2-2-0---|
A|-3--3-3-3-3-3-0---|
D|--------------0---|

Black hole sun
Won't you come
And wash away the rain
Black hole sun
Won't you come...
Won't you come...

Verso:
E|----------------------------------------------|
B|----------------------------------------------|
G|-------5--------------5--------------5--------|
D|-----5----5---------5----5---------3----3-----|
A|---5--------5-----5--------5-----3--------3---|
D|-5------------5-8------------8-3------------3-|

E|----------------------------------------------|
B|----------------------------------------------|
G|-------4--------------1--------------2--------|
D|-----2----2---------1----1---------0----0-----|
A|---2--------2-----1--------1-----3--------3---|
D|-2------------0-1------------1-0------------0-|

E|--------------------------|
B|--------------------------|
G|--------------------------|
D|-----5-------5---------6--|
A|---5---5---5---5-----6----|
D|-5-------3-------3/6------|

Stuttering
Cold and damp
Steal the warm wind tired friend
Times are gone for honest men
And sometimes far too long for snakes

E|----------------------------------------------|
B|----------------------------------------------|
G|-------5--------------5--------------5--------|
D|-----5----5---------5----5---------3----3-----|
A|---5--------5-----5--------5-----3--------3---|
D|-5------------5-8------------8-3------------3-|

E|----------------------------------------------|
B|----------------------------------------------|
G|-------4--------------1--------------2--------|
D|-----2----2---------1----1---------0----0-----|
A|---2--------2-----1--------1-----3--------3---|
D|-2------------0-1------------1-0------------0-|

E|--------------------------|
B|--------------------------|
G|--------------------------|
D|-----5-------5---------6--|
A|---5---5---5---5-----6----|
D|-5-------3-------3/6------|

In my shoes
Walking sleep
And my youth I pray to keep
Heaven send
Hell away
No one sings like you anymore

Refrão:

E|-----------------------------------------------|
B|-----------------------------------------------|
G|-------1--------------2------------------------|
D|-----1----1---------0----0---------5-------5---|
A|---1--------1-----3--------3-----5---5---5---5-|
D|-1------------1-0------------0-5-------3-------|

E|--------------------------------------------|
B|--------------------------------------------|
G|-------7------------1--------------2--------|
D|-----8----8-------1----1---------0----0-----|
A|---8--------8---1--------1-----3--------3---|
D|-8------------0------------1-0------------0-|

E|--------------------------------------------------|
B|-1--1-1-1-1-1-3--3-3-3-3-3------------------------|
G|-0--0-0-0-0-0-3--3-3-3-3-3-------1--------------2-|
D|-2--2-2-2-2-2-3--3-3-3-3-3-----1----1---------0---|
A|-3--3-3-3-3-3-1--1-1-1-1-1---1--------1-----3-----|
D|---------------------------1------------1-0-------|

E|----------------------------------------------|
B|----------------------------------------------|
G|-----------------------------7--------------1-|
D|-0---------5-------5-------8----8---------1---|
A|---3-----5---5---5---5---8--------8-----1-----|
D|-----0-5-------3-------8------------0-1-------|

E|----------------------|
B|----------------------|
G|-------------2--------|
D|-1---------0----0-----|
A|---1-----3--------3---|
D|-----1-0------------0-|

Black hole sun, Won't you come
And wash away the rain
Black hole sun, Won't you come... Won't you come...
Black hole sun, Won't you come
And wash away the rain
Black hole sun, Won't you come... Won't you come...

C            Bb              D              C
  Black hole sun, Black hole sun, Won't you come...
           Bb              D              C
Black hole sun, Black hole sun, Won't you come...
           Bb              D              C
Black hole sun, Black hole sun, Won't you come...
           Bb              D
Black hole sun, Black hole sun...

Interlúdio:
E|---------------------0--0---|
B|---------------------0--0---|
G|---------------------2--2---|
D|---------------------3--3---|  x3
A|---------------------3--3---|
D|-10-9-7--9/10-5-4-3-------0-|

E|---------------------0--0-----------|
B|---------------------0--0-----------|
G|---------------------2--2-----------|
D|---------------------3--3---3/5-5---|  x1
A|---------------------3--3---3/5-5---|
D|-10-9-7--9/10-5-4-3-------0-3/5-5---|

Verso:
E|----------------------------------------------|
B|----------------------------------------------|
G|-------5--------------5--------------5--------|
D|-----5----5---------5----5---------3----3-----|
A|---5--------5-----5--------5-----3--------3---|
D|-5------------5-8------------8-3------------3-|

E|----------|
B|----------|
G|-------4--|
D|-----2----|
A|---2------|
D|-2--------|

Hang my head
Drown my fear
Till you all just disappear

Refrão:
E|-----------------------------------------------|
B|-----------------------------------------------|
G|-------1--------------2------------------------|
D|-----1----1---------0----0---------5-------5---|
A|---1--------1-----3--------3-----5---5---5---5-|
D|-1------------1-0------------0-5-------3-------|

E|--------------------------------------------|
B|--------------------------------------------|
G|-------7------------1--------------2--------|
D|-----8----8-------1----1---------0----0-----|
A|---8--------8---1--------1-----3--------3---|
D|-8------------0------------1-0------------0-|

E|--------------------------------------------------|
B|-1--1-1-1-1-1-3--3-3-3-3-3------------------------|
G|-0--0-0-0-0-0-3--3-3-3-3-3-------1--------------2-|
D|-2--2-2-2-2-2-3--3-3-3-3-3-----1----1---------0---|
A|-3--3-3-3-3-3-1--1-1-1-1-1---1--------1-----3-----|
D|---------------------------1------------1-0-------|

E|--------------------------------------------|
B|--------------------------------------------|
G|-----------------------------7------------1-|
D|-0---------5-------5-------8----8-------1---|
A|---3-----5---5---5---5---8--------8---1-----|
D|-----0-5-------3-------8------------0-------|

E|----------------------|
B|----------------------|
G|-------------2--------|
D|-1---------0----0-----|
A|---1-----3--------3---|
D|-----1-0------------0-|

Black hole sun, Won't you come
And wash away the rain
Black hole sun, Won't you come... Won't you come...
Black hole sun, Won't you come
And wash away the rain
Black hole sun, Won't you come... Won't you come...

C            Bb              D              C
  Black hole sun, Black hole sun, Won't you come...
           Bb              D              C
Black hole sun, Black hole sun, Won't you come...
           Bb              D              C
Black hole sun, Black hole sun, Won't you come...
           Bb              D
Black hole sun, Black hole sun...
C  Bb  D      C  Bb  D      C  Bb  D
eeehhhhh...   eeehhhhh...   eeehhhhh...
C            Bb                D
  Black hole sun... Black hole sun...
Otros videos de esta canción
    86.855 exhibiciones
      • ½ Tono
      • A
      • Bb
      • B
      • C
      • Db
      • D
      • Eb
      • E
      • F
      • F#
      • G
      • Ab
    • Agregar a la lista

    Afinación de cifrado

    Afinador online

      OK