Cifra Club

Drown Me Slowly

Audioslave

Cifrado: Principal (guitarra y guitarra eléctrica)
tono: G
s:slide
h:hammer-on
x:mufled strings
b:bend

Intro:

e|----0-0-0-0-0-0-0-0-0-0-0-0-0-0-0-0
B|-1s5-5-5-5-5-5-5-5-3-3-3-3-3-3-3-3-
G|-----------------------------------
D|-----------------------------------
A|-----------------------------------
E|-----------------------------------

e|-0-0-0-0-0-0-0-0---0-0-0-0-0-0-0-0
B|1-1-1-1-1-1-1-1-1s5-5-5-5-7-7-8-8-
G|----------------------------------
D|----------------------------------
A|----------------------------------
E|----------------------------------

e|-0-0-0-0-0-0-0-0-0-0-0-0-0-0-0-0
B|5-5-5-5-5-5-5-5-3-3-3-3-3-3-3-3-
G|--------------------------------
D|--------------------------------
A|--------------------------------
E|--------------------------------

e|-0-0-0-0-0-0-0-0------
B|1-1-1-1-1-1-1-1-------
G|----------------------
D|-----------------7----
A|-----------------5----
E|----------------------

Verso:
(Obs:Os slides do verso são decrescentes)

e|-------------------------------------------------
B|-------------------------------------------------
G|-7-----------------------7-----------------------
D|-7--9s--------5--7s------7--7--9s--------5--7----
A|-5--7s------5-5--7s------5--5--7s------5-5--5----
E|----0-------3-3--5s------------0-------3-3-------

I've got a will this time don't care what you say
I've got a feeling this will all go away
It's in the wind this time it's in the southern sky
I can't walk on water yet won't even try

Refrão:

e|-------------------------------------------
B|-------------------------------------------
G|-------------------------------------------
D|--------------------------------2----------  x3
A|-------------------5---------------5-3-----
E|-0--0-3h5-0--0-3h5---0--0-3h5-0--------5-3-

So drown me slowly
Enclose me
Drown me slowly alright
Drown me slowly
Enfold me

e|---------------------------------
B|---------------------------------
G|---------------------------------
D|---------------------------------  x1
A|-------------------5-------------
E|-0--0-3h5-0--0-3h5---0--0-3h5-0--

Drown me slowly

Verso:

e|--------------------------------------------------
B|--------------------------------------------------
G|---7------------------------7---------------------
D|-7-7--9s---------5--7s------7--7--9s--------5--7--
A|-5-5--7s-------5-5--7s------5--5--7s------5-5--5--
E|------0--------3-3--5s------------0-------3-3-----

All that I took with me was a bad taste in my mouth
Went all around the world just couldn't spit it out
Just like ground zero was the surface of the sun
That's a sickness I can't fix it 

e|----------10--
B|-12-10-12-----
G|--------------
D|--------------
A|--------------
E|--------------

Not all at once

Refrão:

e|-------------------------------------------
B|-------------------------------------------
G|-------------------------------------------
D|--------------------------------2----------  x3
A|-------------------5---------------5-3-----
E|-0--0-3h5-0--0-3h5---0--0-3h5-0--------5-3-

So drown me slowly
Enclose me
Drown me slowly alright
Drown me slowly
Enfold me

e|---------------------------------
B|---------------------------------
G|---------------------------------
D|---------------------------------  x1
A|-------------------5-------------
E|-0--0-3h5-0--0-3h5---0--0-3h5-0--

Drown me slowly

Solo:

Esse é o solo mais maluco do OUT OF EXILE. Mistura
sons de scratch de DJ, ruidos parecidos com um
carro de Fórmula 1 e notas de um solo convencional.
A parte do "scratch" eu já vi o Tom Morello fazendo
ao vivo em um vídeo. Ele literalmente toca igual um
DJ, só que na guitarra. Ele fica esfregando os dedos
nela fazendo vários Slides e tira esse som. Se você
quiser tentar...

Interlúdio:

e|--0-0-0-0-0-0-0-0-0-0-0-0-0-0-0-0
B|-5-5-5-5-5-5-5-5-3-3-3-3-3-3-3-3-
G|---------------------------------
D|---------------------------------
A|---------------------------------
E|---------------------------------
                                      x5
e|-0-0-0-0-0-0-0-0---0-0-0-0-0-0-0-0
B|1-1-1-1-1-1-1-1-1s5-5-5-5-7-7-8-8-
G|----------------------------------
D|----------------------------------
A|----------------------------------
E|----------------------------------

Don't let them take you down
You'll leave a better world than you found
Don't let them take you down
You'll leave a better world than you found
Don't let them take you down
Don't let them take you down

e|-0-0-0-0-0-0-0-0-0-0-0-0-0-0-0-0
B|5-5-5-5-5-5-5-5-3-3-3-3-3-3-3-3-
G|--------------------------------
D|--------------------------------
A|--------------------------------
E|--------------------------------

e|-0-0-0-0-0-0-0-0----------
B|1-1-1-1-1-1-1-1-----------
G|--------------------------
D|-----------------x-x-7----
A|-----------------x-x-5----
E|--------------------------

Don't let them take you down
Don't let them take you down

Refrão:

e|-------------------------------------------
B|-------------------------------------------
G|-------------------------------------------
D|--------------------------------2----------  x3
A|-------------------5---------------5-3-----
E|-0--0-3h5-0--0-3h5---0--0-3h5-0--------5-3-

Drown me slowly
Enclose me
Drown me slowly alright
Drown me slowly
Enfold me

e|-------------------------------------
B|-------------------------------------
G|-------------------------------------
D|-------------------------------------
A|-------------------5------------12b--
E|-0--0-3h5-0--0-3h5---0--0-3h5-0-12b--

Drown me slowly

e|----------------------------------------------
B|----------------------------------------------
G|----------------------------------------------
D|----------------------------------------------
A|----------------------------------------------
E|-0-0-0-0-12b--0-0-0-0-12b--0-0-0-0-12b--3-0-3-

Drown me slowly...
Drown me slowly...
Drown me slowly...

Toque o Mizão depois da última nota Sol.
00:00 / 00:00
Otros videos de esta canción
Repetir
Otros videos de esta canción
Composición de Audioslave / Chris Cornell
Colaboración y revisión:
  • Marcio Silva
126 vistas
    • ½ Tono
    • A
    • Bb
    • B
    • C
    • Db
    • D
    • Eb
    • E
    • F
    • F#
    • G
    • Ab
  • Agregar a la lista

    0 comentarios

    Ver todos los comentarios

    ¿Lograste tocar?

    0 Tocaron 0 Aún no

    ¡Graba un video tocando Drown Me Slowly y envíanoslo!

    00:00 / 00:00
    OK