Cifra Club

Gasoline

Audioslave

Cifrado: Principal (guitarra y guitarra eléctrica)
tono: A
Intro:                 3x
E|-----|---------------------------------|
B|-----|---------------------------------|
G|-----|---------------------------------|  
D|-----|---------------------------------|
A|-----|-----------------0h2-----2-------|
B|-12/-|-0-----0-3h5---0-----------------|

E|---------------------------------|
B|---------------------------------|
G|---------------------------------|
D|---------------------------------|
A|-------------2---~-------~-------|
B|-5-5-3-5-3-0-0---~-------~-------|

E|---------------------------------|---------------------------------|
B|---------------------------------|---------------------------------|
G|---------------------------------|---------------------------------|
D|---------------------------------|---------------------------------|
A|-----------------0h2-----2-------|-2---------------0h2-----2-------|
B|-0-----0-3h5---0-----------------|---0---0-3h5---0-----------------|

E|-------------------------|
B|-------------------------|
G|-------------------------|
D|-------------------------|
A|-------2-~---~---~---~---|
B|-5535300-~---~---~---~---|

E|-----------------|-----------------|-----------------|-----------------|
B|-----------------|---------5---4---|-----------------|---------5---4---|
G|-----------------|-----------------|-----------------|-----------------|
D|-4---------------|-4---------------|-4---------------|-4---------------|
A|-2---------------|-2---------------|-2---------------|-2---------------|
B|-----------------|-----------------|-----------------|-----------------|

Verso:
E|-----------------|-----------------|-----------------|-----------------|
B|-----------------|---------5---4---|-----------------|---------5---4---|
G|-----------------|-----------------|-----------------|-----------------|
D|-4---------------|-4---------------|-4---------------|-4---------------|
A|-2---------------|-2---------------|-2---------------|-2---------------|
B|-----------------|-----------------|-----------------|-----------------|

E|-----------------|-----------------|-----------------|-----------------|
B|-----------------|---------5---4---|-----------------|---------5---4---|
G|-----------------|-----------------|-----------------|-----------------|
D|-2---------------|-2---------------|-4---------------|-4---------------|
A|-0---------------|-0---------------|-2---------------|-2---------------|
B|-----------------|-----------------|-----------------|-----------------|

E|-----------------|-----------------|-----------------|-----------------|
B|-----------------|---------5---4---|-----------------|---------5---4---|
G|-----------------|-----------------|-----------------|-----------------|
D|-4---------------|-4---------------|-4---------------|-4---------------|
A|-2---------------|-2---------------|-2---------------|-2---------------|
B|-----------------|-----------------|-----------------|-----------------|

E|-----------------|-----------------|-----------------|-----------------|
B|-----------------|---------5---4---|-----------------|---------5---4---|
G|-----------------|-----------------|-----------------|-----------------|
D|-2---------------|-2---------------|-4---------------|-4---------------|
A|-0---------------|-0---------------|-2---------------|-2---------------|
B|-----------------|-----------------|-----------------|-----------------|

Refrão:        
E|---------------------------------|---------------------------------|
B|---------------------------------|---------------------------------|
G|---------------------------------|---------------------------------|
D|---------------------------------|---------------------------------| (2x)
A|-----------------0h2-----2-------|-2---------------0h2-----2-------|
B|-0-----0-3h5---0-----------------|---0---0-3h5---0-----------------|

E|---------------------------------|
B|---------------------------------|
G|---------------------------------|  (2x)
D|-----------------2-0-------------|  
A|---------------------2-0-----0h2-|
B|-0-----0-3h5---0-----------------|

E|-------------------------|
B|-------------------------|
G|-------------------------|
D|-------------------------|
A|--------2~---~---~---~---|
B|-5535300-~---~---~---~---|

Verso:
E|-----------------|-----------------|-----------------|-----------------|
B|-----------------|---------5---4---|-----------------|---------5---4---|
G|-----------------|-----------------|-----------------|-----------------|
D|-4---------------|-4---------------|-4---------------|-4---------------|
A|-2---------------|-2---------------|-2---------------|-2---------------|
B|-----------------|-----------------|-----------------|-----------------|

E|-----------------|-----------------|-----------------|-----------------|
B|-----------------|---------5---4---|-----------------|---------5---4---|
G|-----------------|-----------------|-----------------|-----------------|
D|-2---------------|-2---------------|-4---------------|-4---------------|
A|-0---------------|-0---------------|-2---------------|-2---------------|
B|-----------------|-----------------|-----------------|-----------------|

E|-----------------|-----------------|-----------------|-----------------|
B|-----------------|---------5---4---|-----------------|---------5---4---|
G|-----------------|-----------------|-----------------|-----------------|
D|-4---------------|-4---------------|-4---------------|-4---------------|
A|-2---------------|-2---------------|-2---------------|-2---------------|
B|-----------------|-----------------|-----------------|-----------------|

E|-----------------|-----------------|-----------------|-----------------|
B|-----------------|---------5---4---|-----------------|---------5---4---|
G|-----------------|-----------------|-----------------|-----------------|
D|-2---------------|-2---------------|-4---------------|-4---------------|
A|-0---------------|-0---------------|-2---------------|-2---------------|
B|-----------------|-----------------|-----------------|-----------------|

Refrão 2:                                           2x
E|---------------------------------|---------------------------------|
B|---------------------------------|---------------------------------|
G|---------------------------------|---------------------------------|
D|---------------------------------|---------------------------------|
A|-----------------0h2-----2-------|-2---------------0h2-----2-------|
B|-0-----0-3h5---0-----------------|---0---0-3h5---0-----------------|

               2x
E|---------------------------------|---------------------|
B|---------------------------------|---------------------|
G|---------------------------------|---------------------|
D|-----------------2-0-------------|---------------------|
A|---------------------2-0-----0h2-|-2-0-------------~---|
B|-0-----0-3h5---0-----------------|-----7-5-3-3-0---~---|

Pré Solo:
E|---------------5/7---------------|
B|--------2-5----------------------|
G|--4---4-----4--------------------|
D|---------------------------------| (6x)
A|---------------------------------|
B|---------------------------------|

E|----5/7----|
B|-----------|
G|-4---------|
D|-----------|     
A|-----------|
B|-----------|

Ponte:
         3x             4x             3x             11x
E|----------------|----------|------------------|------------|
B|--3-------------|--5-3-5---|---3--------------|--5-3-5-----|
G|----4-4-4-2-4---|----------|-----4-4-4-2-4----|------------|
D|----------------|----------|------------------|------------|
A|----------------|----------|------------------|------------|
B|----------------|----------|------------------|------------|

Refrão 2:                                           2x
E|---------------------------------|---------------------------------|
B|---------------------------------|---------------------------------|
G|---------------------------------|---------------------------------|
D|---------------------------------|---------------------------------|
A|-----------------0h2-----2-------|-2---------------0h2-----2-------|
B|-0-----0-3h5---0-----------------|---0---0-3h5---0-----------------|

               2x
E|---------------------------------|---------------------|
B|---------------------------------|---------------------|
G|---------------------------------|---------------------|
D|-----------------2-0-------------|---------------------|
A|---------------------2-0-----0h2-|-2-0-------------~---|
B|-0-----0-3h5---0-----------------|-----7-5-3-3-0---~---|

Final:
E|---------------------------------|---------------------|
B|---------------------------------|---------------------|
G|---------------------------------|---------------------|
D|---------------------------------|---------------------|
A|-----------------0h2-----2-------|-2-0-------------~---|
B|-0-----0-3h5---0-----------------|-----7-5-3-3-0---~---|

E|---------------------------------|-----------------|-----------------|
B|---------------------------------|-----------------|-----------------|
G|---------------------------------|-----------------|-----------------|
D|---------------------------------|-----------------|-~---~---~---~---|
A|-----------------0h2-----2-------|-2-0-------------|-~---~---~---~---|
B|-0-----0-3h5---0-----------------|-----7-5-3-3-0---|-~---~---~---~---|
00:00 / 00:00
Otros videos de esta canción
Repetir
Otros videos de esta canción
Composición de Audioslave / Chris Cornell
Colaboración y revisión:
  • Lucas Kappaun
2.300 vistas
    • ½ Tono
    • A
    • Bb
    • B
    • C
    • Db
    • D
    • Eb
    • E
    • F
    • F#
    • G
    • Ab
  • Agregar a la lista

    0 comentarios

    Ver todos los comentarios
    00:00 / 00:00
    OK