Cifra Club

Man or Animal

Audioslave

Cifrado: Principal (guitarra y guitarra eléctrica)
tono: E
x: Mufled strings

Intro: Ficar arrastando a palheta na corda mais grave da guitarra...

intro:
E|----------------------------------------------|
B|----------------------------------------------|
G|----------------------------------------------|
D|----------------------------------------------|
A|--0----------0----------0----------0-----2----|
E|----2--0--2----2--0--2----2--0--2----2--------| 4x’s


Verse:

E|-----------------|
B|-----------------|
G|-----------------|
D|--4--4--x-x-x-x--|
A--4--4--x-x-x-x--|
E|--2--2--x-x-x-x--| 8x’s

E|----------------------------------------------|
B|----------------------------------------------|
G|----------------------------------------------|
D|----------------------------------------------|
A--2b--0--2--2b--0--2--2-----------------------|
E|----------------------------------------------|

E|----------------------------------------------|
B|----------------------------------------------|
G|----------------------------------------------|
D|----------------------------------------------|
A--2b--0--2-2b--0--2---2----2-2-2--------------|
E|----------------------------------------------|




You give a heart attack
You look like the summertime
You call me an artifact
But I'll save that for another time
I could be rich or poor 
I don't need anymore
Keep your love inside the kitchen
You can feed me anything
Leave the feathers on the chicken
Leave the leather from your skin
I can be young or old
Sweet or sad, hot or cold

Refrão:

E|-------------------------|
B|-------------------------|
G--7---9---6-x-6-x--------|
D|--7---9---6-x-6-x---9----|
A--5---7---4-x-4-x---9----|
E|--------------------7----| 3x’s


Man or animal, I don't care at all
Find the antidote underneath the dose
Man or animal, obidient-
Out of control

Main Riff:

E|----------------------------------------------|
B|----------------------------------------------|
G|----------------------------------------------|
D|----------------------------------------------|
A|--0----------0----------0----------0-----2----|
E|----2--0--2----2--0--2----2--0--2----2--------|

E|----------------------------------------------|
B|----------------------------------------------|
G|----------------------------------------------|
D|----------------------------------------------|
A|--0----------0----------0----------0----------|
E|----2--0--2----2--0--2----2--0--2----2---0----|


Verso x2

E|-----------------|
B|-----------------|
G|-----------------|
D|--4--4--x-x-x-x--|
A--4--4--x-x-x-x--|
E|--2--2--x-x-x-x--| 8x’s

E|----------------------------------------------|
B|----------------------------------------------|
G|----------------------------------------------|
D|----------------------------------------------|
A--2b--0--2--2b--0--2--2-----------------------|
E|----------------------------------------------|

E|----------------------------------------------|
B|----------------------------------------------|
G|----------------------------------------------|
D|----------------------------------------------|
A--2b--0--2-2b--0--2---2----2-2-2--------------|
E|----------------------------------------------|



I will love you more than money 
I will breathe you in the smoke
I will drink you in my honey
Sweet and golden down my throat
When you're right, when you're wrong
Head is near, eyes are gone
You can drown my appetite
I will sip your tears at night
You can tie me to a chair
Skin and bones, I don't care
I could be rich or poor
I don't need anymore

Refrão:

E|-------------------------|
B|-------------------------|
G--7---9---6-x-6-x--------|
D|--7---9---6-x-6-x---9----|
A--5---7---4-x-4-x---9----|
E|--------------------7----| 3x’s


Man or animal, I don't care at all
Find the antidote underneath the dose
Man or animal, obidient-
Out of control

Main Riff:

E|----------------------------------------------|
B|----------------------------------------------|
G|----------------------------------------------|
D|----------------------------------------------|
A|--0----------0----------0----------0-----2----|
E|----2--0--2----2--0--2----2--0--2----2--------|

E|----------------------------------------------|
B|----------------------------------------------|
G|----------------------------------------------|
D|----------------------------------------------|
A|--0----------0----------0----------0----------|
E|----2--0--2----2--0--2----2--0--2----2---0----|


Solo

Esse solo é fica meio esquisito sem os efeitos,mais da para fazer,acho q ele usa wha wha e o outro
 efeito eu nao sei, mais podem confiar pq esta certo!!!

E|-----------------------------------------------------------------|
B|--0------------0-------------------------------------------------|
G|--0------------0-------------------------------------------------|
D|--0------------0-------------------------------------------------|
A--0------------0-------------21--19------------------------------|
E|--0---14~~~----0----14~~~-----------21--20--19--17----13~~~------|

E|-----------------------------------------------------------------|
B|--0--------------------------------------------------------------|
G|--0------------0-------------------------------------------------|
D|--0------------0-------------------------------------------------|
A--0------------0------------21--19-------------------------------|
E|--0---14~~~----0----14~~~------------21--20--19--17----19~~~-----|

E|-----------------------------------------------------------------|
B|-----------------------------------------------------------------|
G|-----------------------------------------------------------------|
D|-----------------------------------------------------------------|
A---7--9-----------7--9------------7--9--7--9---------------------|
E|---------7--5~-----------5--4~----------------9--7--9--7--5-4~---|

E|----------------------------------------------------------|
B|--------0--------------------------0----------------------|
G|--------0--------------------------0----------------------|
D--0-0---0-----------------------0--0----------------------|
A--0-0---------------------------0-------------------------|
E|--0-0--------15~~~/18~~~--------0--------15~~~/18~~~------|




Refrão:

E|---------------------------------------|
B|---------------------------------------|
G|--7----9-------------------------------|
D|--7----9-------------------------------|
A--5----7------0-----------0------------|
E|----------------2--0--2-----2--0--2----|

E|---------------------------------------|
B|---------------------------------------|
G|---------------------------------------|
D|--7----9-------------------------------|
A--5----7------0-----------0------------|
E|----------------2--0--2-----2--0--2----|


Man or animal, I don't care at all
Find the antidote underneath the dose

E|----------------------------------------------------------------|
B|----------------------------------------------------------------|
G|--7--7-7-7-7-7-7----9--9-9-9-9-9-9------------------------------|
D|--7--7-7-7-7-7-7----9--9-9-9-9-9-9------------------------------|
A--5--5-5-5-5-5-5----7--7-7-7-7-7-7-----0-----------0------------|
E|-----------------------------------------2--0--2-----2--0--2----| 

E|--------------------------------------|
B|--------------------------------------|
G|--------------------------------------|
D|--7--7-7-7-7-7-7----9--9-9-9-9-9-9----|
A--5--5-5-5-5-5-5----7--7-7-7-7-7-7----|


Man or animal, obidient-
Out of control

e|---------------------
B|---------------------
G|---------------------
D|-7-7-7-7-7-9-9-9-9-9-
A|-5-5-5-5-5-7-7-7-7-7-  x1
E|---------------------

Out of control

Finalização:

E|----------------------------------------------|
B|----------------------------------------------|
G|----------------------------------------------|
D|----------------------------------------------|
A|--0----------0----------0----------0-----2----|
E|----2--0--2----2--0--2----2--0--2----2--------|

E|----------------------------------------------|
B|----------------------------------------------|
G|----------------------------------------------|
D|----------------------------------------------|
A|--0----------0----------0----------0----------|
E|----2--0--2----2--0--2----2--0--2----2---0----|


You give me a heart attack
I will give you more than that
You give me a heart attack
I will give you more than that            
00:00 / 00:00
Otros videos de esta canción
Repetir
Otros videos de esta canción
Composición de Audioslave / Chris Cornell
Colaboración y revisión:
  • Ederson Carlos
  • Marcio Silva
208 vistas
    • ½ Tono
    • A
    • Bb
    • B
    • C
    • Db
    • D
    • Eb
    • E
    • F
    • F#
    • G
    • Ab
  • Agregar a la lista

    0 comentarios

    Ver todos los comentarios

    ¿Lograste tocar?

    2 Tocaron 0 Aún no

    ¡Graba un video tocando Man or Animal y envíanoslo!

    00:00 / 00:00
    OK